jigsaw
the insyderz
fight of my life
tabbed by jared gardner     [email protected]

this is the first part of the intro
G|-----------------|
D|-----------------|
A|-7~~~--------5-7-|
E|-------3-3-3-----|
(for those of you who were wondering, 
the little squiggly thing means bend)

here's the rest of the intro, 4x
G|---------------------------|
D|---------------------------|
A|-----------5--7-5-7--2--3--|
E|--3--3--3------------------|

this is the verse, play it 4x
G|--------------------------------------|
D|--------------------------------------|
A|-----5--7-5-7-5-7---2---3-3-3-3-2-2-0-|
E|-3------------------------------------|

prechorus, 2x
G|---------------------------------|
D|---------------------------------|
A|---------------------------------|
E|-3-3-3-3-5-5-5-5-2-2-2-2-3-3-3-3-|

chorus, 4x
G|---------------------------------|
D|---------------------------------|
A|---------5-5-5-5-7-7-7-7-3-3-3-3-|
E|-3-3-3-3-------------------------|

little solo riff, 4x
G|-----------------|
D|-----------------|
A|-7--5-3-5--3-0-3-|
E|-----------------|

after the solo thing,  play one of the other riffs some more (i forget
which one - chorus, i think . . . just try it), then end on G

that's all there is to it, not very complicated . . . questions, 
comments, punk tabs, and record deals for my band (renamed from syndeco
to livewire due to adverse circumstances involving our former drummer) 
go to [email protected]

ps  *ahem* on behalf of livewire, i would like to extend thanx to 
jeff kettel of the original livewire . . . so, uh . . . thanx


Текст, аккорды и табулатура для песни "Jigsaw", исполняет "Insyderz".
Используемые в песне аккорды можно найти в разделе Как брать аккорды. Аккорды для шестиструнной гитары. Другие песни можно найти на нашем сайте, воспользовавшись алфавитным указателем вверху страницы.


 
Ошибка в тексте? Выделите ошибку и нажмите Ctrl+Enter