Band: Insane Clown Possee (ICP)
Album: (single)
Song: Ain't Nuttin' But a Bitch Thang (Eminem Diss #2)
Tuning: Standard (G, D, A, E)
Tabbed by: Niall 'Uncle Clitsta' ([email protected]) formally 'clitz'
note: great bassline

legend
-------
/     - Slide
~     - Let Ring (see below tab for breif descrition)
^ ^ ^ - Triplet (beginners see below tab)
5h7   - Hammer on
7p5   - Pull Off

|G|------------------------------------------------------------------------
D------------------------------------------------------------------------
A------------------------------------------------------------------------
E------------------------------------------------------------------------

Intro
|G|----------|-------------------------|--------------|
D----------|*-----------------------*|---7/--7/-----|
A---REST---|*-----7--6--5~----------*|--------------|
E----------|---0------------5--4--3--|--------------|

Verse (repeat as needed)
|G|-------------------------|
D*-----------------------*|
A*-----7--6--5~----------*|
E--0------------5--4--3---|

Chorus (Eminem Ain't Nuttin But A Bitch...)
                                       ^ ^ ^
|G|----------------------------------------------------------------------|
D*-----------------------------------7-7-7--6--5----------------------*|
A*---7--6--5~--------------7--6--5------------------7--6--5~----------*|
E-0-----------5--4--3---0------------------------0------------5--4--3--|

Fill 1 (not nessicarily needed...HUSBAND, TELL ME WHERE SHES AT?)
|G|--------------------------------------------|
D-----7---7--------7-------------------------|
A-5-5---5---5--5-5---7--5-5h7p5-5-6--6-7-----|
E--------------------------------------------|

Fill 2 (not nessicarily needed...the 'suck dick' fill, unsure)
|G|--------------------------------------|
D--------------------------------------|
A-----------------------------5h7-7----|
E-5----5----5----5----5----5-----------|

Added Bonus (during the intro there is a little background music, this is it
for bass, see below for more info)
|G|---------------|
D*-------------*|
A*-3--3--3--6~-*|
E---------------|

thats it!
Enjoy 
Clitz
===========================
FURTHER INFORMATION - READ
===========================
Triplet - The way I play a triplet is with a pick and i just up and down pick fast
if you know the song you'll learn how to play it.
Let Ring? - No, rather then stating all the other notes in the verse were staccato
i would rather say the D is a Lagatto, or a Longer note, perhaps even a reverse slide.
Added bonus - when your playing the added bonus, to get that tinnie sound play your
A-string with a Pick close to the metallic area that holds your strings tension.


Текст, аккорды и табулатура для песни "Aint Nuttin But A Bitch Thang", исполняет "Insane Clown Posse".
Используемые в песне аккорды можно найти в разделе Как брать аккорды. Аккорды для шестиструнной гитары. Другие песни можно найти на нашем сайте, воспользовавшись алфавитным указателем вверху страницы.


 
Ошибка в тексте? Выделите ошибку и нажмите Ctrl+Enter