pretty easy to figure out where everything goes, awesome song by an
extremely talented band, expect great stuff from their new album out soon :D

Intro: x2 
G|-------------------------------------------------------------------------|
D|-------------------------------------------------------------------------|
A|-------------------------------------------------------------------------|
D|-14-12-12-12-14-12-12-12-14-12-14-12-12-14-12-12-12-14-12-12-14-12-14-12-|

G|-------------------------------------------------------------|
D|-------------------------------------------------------------|
A|-------------------------------------------------------------|
D|-11-12-12-12-11-12-12-12-11-12-11-12-777-555-444-13-13-13-13-|

Verse: x8
G|-------------------------------------|
D|-------------------------------------|
A|-------------------------------------|
D|-14-12-12-12-14-12-12-12-14-12-14-12-|

Chorus: x2
G|------------------------------------------------------------------------|
D|------------------------------------------------------------------------|
A|-------------------------------------12---------------------------------|
D|8888-10-10-10-10-10-11-14-12-12-14-12-12-12-14-12-14-12-12-14-14-12-12--|

Verse x8
Chorus x2

Interlude: Come in after Guitar
G|------------------------------------------|
D|------------------------------------------|
A|------------------------------------------|
D|-----------------------777-555-444-13-13/-|

G|-------------------------------------------------------------------------|
D|-------------------------------------------------------------------------|
A|-------------------------------------------------------------------------|
D|-14-12-12-12-14-12-12-12-14-12-14-12-12-14-12-12-12-14-12-12-14-12-14-12-|

G|-----------------------------------------------------------|
D|-----------------------------------------------------------|
A|-----------------------------------------------------------|
D|-11-12-12-12-11-12-12-12-11-12-11-12-777-555-444-13-7-10-9-|

Then: x3 Fourth time stop at the line
G|----------------|-------------------------------------------|
D|----------------|-------------------------------------------|
A|-------5-----9--|---5--------------9-----7-10----9----------|
D|-4-7-55---555—55|55---555--7-10-99---999------99--999-7-10--|

Chorus x4

Outro:
G|--------------------------------------------------------------|
D|--------------------------------------------------------------|
A|--------------------------------------------------------------|
D|-12-0-0-12-0-0-12-0-0-12-0-0-13-0-0-13-0-0-13-0-0-13-0-0-14-0-|


Текст, аккорды и табулатура для песни "Underdose", исполняет "Inme".
Используемые в песне аккорды можно найти в разделе Как брать аккорды. Аккорды для шестиструнной гитары. Другие песни можно найти на нашем сайте, воспользовавшись алфавитным указателем вверху страницы.


 
Ошибка в тексте? Выделите ошибку и нажмите Ctrl+Enter