Intro:
 
E-5*----------------|      |-0--0--|
B----5*-------------|      |-------|
G-------------------| then |-------|  the note 0 is played every
D-------9*-7*----9*-|      |-------|  2 beats
A-------------9*----|      |-------|
D-------------------|      |-------|

Verse:

E------------------------------------5-5-5-5-5-7-7------------|
B-5-7-7-7-7^-7-7-7-7-7-7--5-7-7-7-7^--------------------------|
G---------------------------------------------------6x13-7x11-| bend the 6 every now
D-------------------------------------------------------------| and then
A-------------------------------------------------------------|
D-------------------------------------------------------------|

The amount of times u play the note isnt as above, but it works like that
if u havent got the pedal to play it with (i think the pedals chorus).

bridge:
 
E-0-----------|
B---0---------|
G-----2-----2-| x3
D-------0-----| then afterwards play a few different harmonics
A---------0---| around 5th fret
D-------------|
 
Chorus:

E-------------------------------|
B-------------------------------|
G-------------------------------|
D-8-8-8-8-7-5-5-5-5-5-1-1-1-1-1-| x2
A-8-8-8-8-7-5-5-5-5-5-1-1-1-1-1-|
D-8-8-8-8-7-5-5-5-5-5-1-1-1-1-1-|

Solo:

E---------------------------------------5-5-5-5-9-7-5|---------------------------
B-5-7-7-7-7^-7-7^-7-7^-7-7^--5-7-7-7-7^--------------|---------------------------
G----------------------------------------------------|-6-6-6-6-6^-6-6^-6-6^-6-6^-
D----------------------------------------------------|---------------------------
A----------------------------------------------------|---------------------------
D----------------------------------------------------|---------------------------

E------------------------------|---------------------------------------5-5-5-5-9-7-5-|
B------------------------------|-5-7-7-7-7^-7-7^-7-7^-7-7^--5-7-7-7-7^---------------|
G--7p6---9p7---7p6---9p7---7p6-|-----------------------------------------------------|
D------7-----7-----7-----7-----|-----------------------------------------------------|
A------------------------------|-----------------------------------------------------|
D------------------------------|-----------------------------------------------------|

E---------------------------------------------------------|------------------------
B---------------------------------------------------------|----------5-5-5-5-------
G--6-6-6-6-6^-6-6^-6-6^-6-6^-7p6---9p7---7p6---9p7---7p6--|--7-7-7-7---------------
D--------------------------------7-----7-----7-----7-----7|------------------------
A---------------------------------------------------------|------------------------
D---------------------------------------------------------|------------------------

E----------------------------------------------------|-5/7-7-7-7-9-9-9-9-10-10-10-10-
B-7-7-7-7-10-10-10----------5-5-5-5-7-7-7-7-10-10-10-|-------------------------------
G-------------------7-7-7-7--------------------------|-------------------------------
D----------------------------------------------------|-------------------------------
A----------------------------------------------------|-------------------------------
D----------------------------------------------------|-------------------------------

E-12-12-12-9-9-9-9-7-7-7-7-5-5-5-5-3-3-3-3-|--7^--7^---------------|-----------
B------------------------------------------|--7^--7^--8-7-5--7h8p7-|-8-7-5-5---
G------------------------------------------|----------------7------|---------7-
D------------------------------------------|-----------------------|-----------
A------------------------------------------|-----------------------|-----------
D------------------------------------------|-----------------------|-----------

E-10p9----12p10----10p9----12p10----10p9----
B------10-------10------10-------10------10-
G-------------------------------------------
D-------------------------------------------
A-------------------------------------------
D-------------------------------------------

Whilst the solo is going on there is a backing guitar. so where ive placed |
lines in the solo, thwey correspond to the bars which the chords are played below

Backing Chords:

E-------------|---------|---------|---------|-------------|--------|---------|---------|
B-------------|---------|---------|---------|-------------|--------|---------|---------|
G-------------|---------|---------|---------|-------------|--------|---------|---------|
D-0-----0-2-4-|----5----|----9----|----5----|-0-----0-2-4-|----5---|----9----|----5----|
A-0-4h5-0-2-4-|----5----|----9----|----5----|-0-4h5-0-2-4-|----5---|----9----|----5----|
D-0-----0-2-4-|----5----|----9----|----5----|-0-----0-2-4-|----5---|----9----|----5----|
     |
this hammer bit here
occurs during the second
bar of playing this chord
(only 2 bars of it. 2 lots
of 4 beats)

Verse 2 chords: (after Chorus)

E---------------------------------|
B---------------------------------|
G---------------------------------| also after playin this bit through Dave 
D-7-7-7-7-7-9-9*-9*-5-5-5-5-5-5-5-| often mutes the 5 in intervals. And also
A-7-7-7-7-7-9-9*-9*-5-5-5-5-5-5-5-| where ive put * , that basically means
D-7-7-7-7-7-9-9*-9*-5-5-5-5-5-5-5-| mute it with ya fingers but give it a sort of
                                    harmonic effect.
Order:
Intro
Verse x 4
Bridge
Verse x4
Bridge
Chorus
Solo + backing Chords
Chorus
Verse 2 Chords x4
Chorus x2
Verse x2
Intro


Текст, аккорды и табулатура для песни "Ruins", исполняет "Inme".
Используемые в песне аккорды можно найти в разделе Как брать аккорды. Аккорды для шестиструнной гитары. Другие песни можно найти на нашем сайте, воспользовавшись алфавитным указателем вверху страницы.


 
Ошибка в тексте? Выделите ошибку и нажмите Ctrl+Enter