After seeing InMe live like 6 times, i thought id better post the real way this is played
so here you are:     (anything wrong with this just email me [email protected] or add me 
[email protected]   Im Always open to compliments mhuh ha ha)

Standard Tuning     

Key:
* = Normal Harmonics
h = Hammer On     (obviously)
/ = Slide
c = Choke Strings
^ = Bend String(s)


Intro:- Flanger, Delay, Very Little Wah (very little)

E:|--0---5*------0--0-----0---12*--------0-----0-----------------|
B:|--0----5*-----0----0---0-----12*------0---0-------------------|
G:|--2-----5*----2--------2-------12*----0-----------------------|
D:|--3------5*---2--------3---------12*--2-----------------------|
A:|--------------------------------------------------------------|
E:|--------------------------------------------------------------|

E:|--0---5*------0--0-----0---12*--------0-----0-----------------|
B:|--0----5*-----0----0---0-----12*------0---0-------------------|
G:|--2-----5*----2--------2-------12*----0-----------------------|
D:|--3------5*---2--------3---------12*--2-----------------------|
A:|--------------------------------------------------------------|
E:|--------------------------------------------------------------|



Verse 1 Played By Bass.




Bridge:- Flanger, Distorted   

E:|-------------------------------------------------------------|
B:|-------------------------------------------------------------|
G:|-4c----------------------------------------------------------|
D:|-4c--55555555--88888888--99999999--44444444------------------|
A:|-2c--33333333--66666666--77777777--22222222------------------|
E:|-2c----------------------------------------------------------|
        ........  ........  ........  ........

E:|-------------------------------------------------------------|
B:|-------------------------------------------------------------|
G:|-------------------------------------------------------------|
D:|---55555555--88888888--9999999999999999----------------------|
A:|---33333333--66666666--7777777777777777----------------------|
E:|-------------------------------------------------------------|
      ........  ........  ................

E:|-------------------------------------------------------------|
B:|-------------------------------------------------------------|
G:|-44----------------------------------------------------------|
D:|-44--55555555--88888888--99999999--44444444------------------|
A:|-22--33333333--66666666--77777777--22222222------------------|
E:|-22----------------------------------------------------------|
        ........  ........  ........  ........

E:|-------------------------------------------------------------|
B:|-------------------------------------------------------------|
G:|-------------------------------------------------------------|
D:|-55555555--88888888------------------------------------------|
A:|-33333333--66666666------------------------------------------|
E:|-------------------------------------------------------------|
    ........  ........  



Pre Chorus

E:|-------------------------------------------------------------|
B:|-------------------------------------------------------------|
G:|-------------------------------------------------------------|
D:|--9h10-9h10-9h10-9h10-9h10-9h10-9h10-9h10--------------------|
A:|-------------------------------------------------------------|
E:|-------------------------------------------------------------|


Chorus:- Distorted

E:|-------------------------------------------------------------|
B:|-------------------------------------------------------------|
G:|-9999------------------9999----------------------------------|
D:|-9999--9999--77777777--7777--9999--77777777------------------|
A:|-7777--9999--77777777--7777--9999--77777777------------------|
E:|-0000--7777--55555555--0000--7777--55555555------------------|

E:|-------------------------------------------------------------|
B:|-------------------------------------------------------------|
G:|-9999------------------9999----------------------------------|
D:|-9999--9999--77777777--9999--9999--7777-7-77-77-77-----------|
A:|-7777--9999--77777777--7777--9999--7777-7-77-77-77-----------|
E:|-0000--7777--55555555--0000--7777--5555-5-55-55-55-----------|


Verse Two:- Distorted

E:|-------------------------------------------------------------|    
B:|-------------------------------------------------------------|    
G:|-------------------------------------------------------------|    
D:|-------------------------------------------------------------|    
A:|-------------------------------------------------------------|    
E:|-1--1/5--5/1---3-0-----0-1--1/5--5/1---3-0-------------------|    


Bridge:- Flanger, Distorted   

E:|-------------------------------------------------------------|
B:|-------------------------------------------------------------|
G:|-4c----------------------------------------------------------|
D:|-4c--55555555--88888888--99999999--44444444------------------|
A:|-2c--33333333--66666666--77777777--22222222------------------|
E:|-2c----------------------------------------------------------|
        ........  ........  ........  ........

E:|-------------------------------------------------------------|
B:|-------------------------------------------------------------|
G:|-----------------------------------------44------------------|
D:|-55555555--88888888--9999999999999999----44------------------|
A:|-33333333--66666666--7777777777777777----22------------------|
E:|-----------------------------------------22------------------|
    ........  ........ .................


E:|-------------------------------------------------------------|
B:|-------------------------------------------------------------|
G:|-------------------------------------------------------------|
D:|---55555555--88888888--99999999--44444444--------------------|
A:|---33333333--66666666--77777777--22222222--------------------|
E:|-------------------------------------------------------------|
      ........  ........  ........  ........

E:|-------------------------------------------------------------|
B:|-------------------------------------------------------------|
G:|-------------------------------------------------------------|
D:|-55555555--88888888------------------------------------------|
A:|-33333333--66666666------------------------------------------|
E:|-------------------------------------------------------------|
    ........  ........  

Pre Chorus

E:|-------------------------------------------------------------|
B:|-------------------------------------------------------------|
G:|-------------------------------------------------------------|
D:|--9h10-9h10-9h10-9h10-9h10-9h10-9h10-9h10--------------------|
A:|-------------------------------------------------------------|
E:|-------------------------------------------------------------|


Chorus:- Distorted

E:|-------------------------------------------------------------|
B:|-------------------------------------------------------------|
G:|-9999------------------9999----------------------------------|
D:|-9999--9999--77777777--7777--9999--77777777------------------|
A:|-7777--9999--77777777--7777--9999--77777777------------------|
E:|-0000--7777--55555555--0000--7777--55555555------------------|

E:|-------------------------------------------------------------|
B:|-------------------------------------------------------------|
G:|-9999------------------9999----------------------------------|
D:|-9999--9999--77777777--9999--9999--7777-7-77-77-77-----------|
A:|-7777--9999--77777777--7777--9999--7777-7-77-77-77-----------|
E:|-0000--7777--55555555--0000--7777--5555-5-55-55-55-----------|



Extra Chorus:- Distorted

E:|-------------------------------------------------------------|
B:|-------------------------------------------------------------|
G:|-------------------------------------------------------------|
D:|-----------7777--9999-------------------7777--999-9-99-99-99-|
A:|-10101010--5555--7777--9999---10101010--5555--777-7-77-77-77-|   


Текст, аккорды и табулатура для песни "Firefly", исполняет "Inme".
Используемые в песне аккорды можно найти в разделе Как брать аккорды. Аккорды для шестиструнной гитары. Другие песни можно найти на нашем сайте, воспользовавшись алфавитным указателем вверху страницы.


 
Ошибка в тексте? Выделите ошибку и нажмите Ctrl+Enter