Injected, “Faithless”
Album: Burn it Black
Tabbed By: Joe
Tuning: Standard

Most of this is 100% correct, except for some parts of the end and bridge that I couldn't 
figure out.  It's an awesome song-remember to turn up that overdrive!  Questions, comments,
insults, etc., send to [email protected] Cut me some slack though, this is my 1st tab!

/=slide, h=hammer on, p=pull off, b=bend strings down, ~=hold note

INTRO (Guitar 1) Repeat 8x
E-----------------------------------------------------------
B-----------------------------------------------------------
G-----------------------------------------------------------
D-2-2-2-2-4-4-4-4-4-4-4/2-----------------------------------
A-2-2-2-2-4-4-4-4-4-4-4/2-----------------------------------
E-0-0-0-0-2-2-2-2-2-2-2/0-----------------------------------

INTRO (Guitar 2) (0:08)
E-----------------------------------------------------------
B-----------------------------------------------------------
G-------------------------12-------------12-12-12-----------
D-12-12-12-12-12-12-12-12----12-15-10-12----------12--------
A-----------------------------------------------------------
E-----------------------------------------------------------

E-----------------------------------------------------------
B-----------------------------------------------------------
G----------12-----------------------------------------------
D-15h17/12----12-15-10-12-10-10-10-10-10-10-10-10b----------
A-----------------------------------------------------------
E-----------------------------------------------------------

VERSES (Guitar 1)
Repeat INTRO, with palm mute.  (Note-Guitar 2 has some background parts; I can’t make 
it out though.)

RIGHT BEFORE CHORUS (0:40) (Guitar 1)
E-----------------------------------------------------------
B-----------------------------------------------------------
G-----------------------------------------------------------
D-2-2-2-2-2-2-----------------------------------------------
A-2-2-2-2-2-2-----------------------------------------------
E-0-0-0-0-0-0-----------------------------------------------

CHORUS (Slam on that distortion!) (Both Guitars)(4x)
E-----------------------------------------------------------
B-----------------------------------------------------------
G-----------------------------------------------------------
D-4-2-4-2-6-4-6-4-------------------------------------------
A-4-2-4-2-6-4-6-4-------------------------------------------
E-2-0-2-0-4-2-4-2-------------------------------------------

AFTER CHORUS (1:03)(Guitar 2)
E-----------------------------------------------------------
B-------15~-------------------------------------------------
G-10-15-----------------------------------------------------
D-----------------------------------------------------------
A-----------------------------------------------------------
E-----------------------------------------------------------

REPEAT VERSE ON GUITAR 1

(1:17)(Guitar 2)
REPEAT INTRO

CHORUS (BOTH GUITARS)

BRIDGE (REPEAT 3X)(1:48, get ready to rumble!) (Parts in parentheses play 2nd time 
and 3rd time only.)
Guitar 1
E-----------------------------------------------------------
B-----------------------------------------------------------
G-----------------------------------------------------------
D-2-2-2-2-(4-4-4-4-4-4)-2-2-2-2-(4-4-4-4-4-4)---------------
A-2-2-2-2-(4-4-4-4-4-4)-2-2-2-2-(4-4-4-4-4-4)---------------
E-0-0-0-0—(2-2-2-2-2-2)-0-0-0-0-(2-2-2-2-2-2)---------------

Guitar 2
E-----------------------------------------------------------
B-----------------------------------------------------------
G-----------------------------------------------------------
D---------12--------------------12~-13/12-13/12-------------
A------------10/8-------------------------------------------
E-----------------------------------------------------------
(There’s a second part, but it’s a bit complicated, so I can’t get it down, maybe 
I’ll submit a revised version later.)

RIGHT BEFORE FINAL CHORUS:
E-----------------------------------------------------------
B-----------------------------------------------------------
G-----------------------------------------------------------
D-2-2-2-2-2-2-----------------------------------------------
A-2-2-2-2-2-2-----------------------------------------------
E-0-0-0-0-0-0-----------------------------------------------

CHORUS (2X, Guitar 1)

CHORUS (2:46, Guitar 2) (It’s a variation of the intro, with a few nice twists, 
there’s one riff that I can’t get near the beginning.)
E-----------------------------------------------------------
B-------12-------12-------12-------12-----------------------
G-11-------11-------11-------11-------10h12-----------------
D----12-------12-------12-------12----------12h10h12h13p12--
A-----------------------------------------------------------
E-----------------------------------------------------------

E-----------------------------------------------------------
B-----------------------------------------------------------
G-12-------------12~-14p12-10~------------------------------
D----12-15-10-12--------------------------------------------
A-----------------------------------------------------------
E-----------------------------------------------------------
					Final Part (3:07)
E----------------------------|------------------------------
B----------------------------|-------15~--------------------
G-12-------------------------|-10-15------------------------
D----12-15-10-12-13/12-13/12-|------------------------------
A----------------------------|------------------------------
E----------------------------|------------------------------


Текст, аккорды и табулатура для песни "Faithless", исполняет "Injected".
Используемые в песне аккорды можно найти в разделе Как брать аккорды. Аккорды для шестиструнной гитары. Другие песни можно найти на нашем сайте, воспользовавшись алфавитным указателем вверху страницы.


 
Ошибка в тексте? Выделите ошибку и нажмите Ctrl+Enter