Infectious Grooves
Three Headed Mind Poluttion
from Sarsippius Ark 
Tabbed by Rodrigo G. Segura ([email protected])


This is an easy and pretty song.

G-----------------------------------------------------------------------
D-----------------------------------------------------------------------
A-----------------------------------------------------------------------
E--------6-6-6-6-6-6-6-6------------6-6-6-6-6-6-6-6---------------------


G-----------------------------------------------------------------------
D-----------------------------------------------------------------------
A-----------------------------------------------------------------------
E--4-4-4-4-4-4-4-4-4--6-6-6-6-6-6-6-6--4-4-4-4-4-4-4-4--6-6-6-6-6-6-6-6-



G-----------------------------------------------------------------------
D-----------------------------------------------------------------------
A--7---7---5---5---8--8-8-8-8-8-8-8-7---7---5---5---8--8-8-8-8-8-8-8----
E-----------------------------------------------------------------------



G-----------------------------------------------------------------------
D--7-5-----7-5-----7-5---8-8-8-8--7-5-----7-5-----7-5---8-8-8-8---------
A------7-5-----7-5-----7--------------7-5-----7-5-----7-----------------
E-----------------------------------------------------------------------



G-----------------------------------------------------------------------
D-6-6-6-6-6-6-6-6-------------------------------------------------------
A-----------------------------------------------------------------------
E---------------------6-6-6-6-6-6-6-6--4-4-4-4-4-4-4-4--6-6-6-6-6-6-6-6-



G-----------------------------------------------------------------------
D-----------------------------------------------------------------------
A---3-1-3-1-3-1-4-4---3-1-3-1-3-1-4-4-----------------------------------
E-----------------------------------------------------------------------


Текст, аккорды и табулатура для песни "Three Headed Mind Pollution", исполняет "Infectious Grooves".
Используемые в песне аккорды можно найти в разделе Как брать аккорды. Аккорды для шестиструнной гитары. Другие песни можно найти на нашем сайте, воспользовавшись алфавитным указателем вверху страницы.


 
Ошибка в тексте? Выделите ошибку и нажмите Ctrl+Enter