Band : Incubus
Song : Wish You Were Here
Album : Morning View
Tabbed by : Reinaldo Gonzalez
Efects: Distortion, Flanger, Delay, Echo, Phaser

Standard Tuning 

Intro : (Ligth distortion)
e-----------------------------------------------|
B-----------------------------------------------|
G---4--4-4-4--4--4-4-4--------------------------|
D---2--2-2-2--2--2-2-2--4--4-4-4/7--7-7--2--2---| 
A---0--0-0-0--2--2-2-2--2--2-2-2/5--5-5--0--0---|
E-------------0--0-0-0--0--0-0-0/0--0-0--0--0---|

e---------------------------------------------------------|
B---------------------------------------------------------|
G---4--4-4-4--4--4-4-4-----------------------9/11-11------|
D---2--2-2-2--2--2-2-2--4--4-4-4/7--7-7-2-2--X-X--x-------| 
A---0--0-0-0--2--2-2-2--4--4-4-4/7--7-7-2-2--7/9--9-------|
E-------------0--0-0-0--2--2-2-2/5--5-5-0-0---------------|


Intro 2 : (Distortion)
e-----------------------------------------------|
B-----------------------------------------------|
G---4--4-4-4--4--4-4-4--------------------------|
D---2--2-2-2--2--2-2-2--4--4-4-4/7--7-7--2--2---| 
A---0--0-0-0--2--2-2-2--2--2-2-2/5--5-5--0--0---|
E-------------0--0-0-0--0--0-0-0/0--0-0--0--0---|

And them!
e---------------------------------------------------------|
B---------------------------------------------------------|
G---4--4-4-4--4--4-4-4-----------------------9/11-11------|
D---2--2-2-2--2--2-2-2--4--4-4-4/7--7-7-2-2--X-X--X-------| 
A---0--0-0-0--2--2-2-2--4--4-4-4/7--7-7-2-2--7/9--9-------| 
E-------------0--0-0-0--2--2-2-2/5--5-5-0-0---------------|

Chorus 1 : (Distortion)
e-----------------------------------------------|
B-----------------------------------------------|
G---4--4-4-4--4--4-4-4--------------------------|
D---2--2-2-2--2--2-2-2--4--4-4-4/7--7-7--2--2---| 
A---0--0-0-0--2--2-2-2--2--2-2-2/5--5-5--0--0---|
E-------------0--0-0-0--0--0-0-0/0--0-0--0--0---|

And them!
e---------------------------------------------------------|
B---------------------------------------------------------|
G---4--4-4-4--4--4-4-4------------------------------------|
D---2--2-2-2--2--2-2-2--4--4-4-4/7--7-7-2-2---------------| 
A---0--0-0-0--2--2-2-2--4--4-4-4/7--7-7-2-2---------------| 
E-------------0--0-0-0--2--2-2-2/5--5-5-0-0---------------|

Verse :  (Delay+Echo)
e-----------------------12-------------|
B-----7---7----------------9h10--(10)--|
G---9---9------------------------(-9)--|
D------------11--9/11-9----------------|
A--------------------------------------|
E--------------------------------------|
                    ( ) optional

e--------------------------------------------|
B-----7---7--------------9----------7----7---|
G---9---9-------------9---11--9---9----9-----|
D-----------11---9/11------------------------|  x3
A--------------------------------------------|
E--------------------------------------------|

Chorus 2/Chorus 3 : (Distortion)
e-----------------------------------------------|
B-----------------------------------------------|
G---4--4-4-4--4--4-4-4--------------------------|
D---2--2-2-2--2--2-2-2--4--4-4-4/7--7-7--2--2---| 
A---0--0-0-0--2--2-2-2--2--2-2-2/5--5-5--0--0---|
E-------------0--0-0-0--0--0-0-0/0--0-0--0--0---|

And them!
e---------------------------------------------------------|
B---------------------------------------------------------|
G---4--4-4-4--4--4-4-4------------------------------------|
D---2--2-2-2--2--2-2-2--4--4-4-4/7--7-7-2-2---------------| 
A---0--0-0-0--2--2-2-2--4--4-4-4/7--7-7-2-2---------------| x2
E-------------0--0-0-0--2--2-2-2/5--5-5-0-0---------------|


Breakdown : (Flanger/ Phaser)
e-----------------------------|   
B-----------------------------| 
G--6-66-6-9999-7-77-7---------| 
D--x-xx-x-xxxx-x-xx-x---------| 
A--4-44-4-7777-5-55-5---------| x2
E-----------------------------|

And them!
e-----------------------------------|   
B-----------------------------------| 
G--6-66-6-9999-7-77-7-12-12-12------| 
D--x-xx-x-xxxx-x-xx-x--x--x--x------| 
A--4-44-4-7777-5-55-5-10-10-10------| x2
E-----------------------------------|

Outro: (ligth distortion)
e-----------------------------------------------|
B-----------------------------------------------|
G---4--4-4-4--4--4-4-4--------------------------|
D---2--2-2-2--2--2-2-2--4--4-4-4/7--7-7--2--2---| 
A---0--0-0-0--2--2-2-2--2--2-2-2/5--5-5--0--0---|
E-------------0--0-0-0--0--0-0-0/0--0-0--0--0---|

e---------------------------------------------------------|
B---------------------------------------------------------|     
G---4--4-4-4--4--4-4-4-----------------------9/11-11------|     
D---2--2-2-2--2--2-2-2--4--4-4-4/7--7-7-2-2--X-X--X-------|     
A---0--0-0-0--2--2-2-2--4--4-4-4/7--7-7-2-2--7/9--9-------|  
E-------------0--0-0-0--2--2-2-2/5--5-5-0-0---------------|     

And them! (Distortion)
e-----------------------------------------------|
B-----------------------------------------------|
G---4--4-4-4--4--4-4-4--------------------------|
D---2--2-2-2--2--2-2-2--4--4-4-4/7--7-7--2--2---| 
A---0--0-0-0--2--2-2-2--2--2-2-2/5--5-5--0--0---|
E-------------0--0-0-0--0--0-0-0/0--0-0--0--0---|

e--------------------------------------------------|     |------------|
B--------------------------------------------------|     |------------|
G---4--4-4-4--4--4-4-4-----------------------------|     |---4/////---|
D---2--2-2-2--2--2-2-2--4--4-4-4/7--7-7-2-2--------|     |---2/////---|
A---0--0-0-0--2--2-2-2--4--4-4-4/7--7-7-2-2--------| x2  |---0/////---|
E-------------0--0-0-0--2--2-2-2/5--5-5-0-0--------|     |------------|


Chers!


Текст, аккорды и табулатура для песни "Wish You Were Here (ver 11)", исполняет "Incubus".
Используемые в песне аккорды можно найти в разделе Как брать аккорды. Аккорды для шестиструнной гитары. Другие песни можно найти на нашем сайте, воспользовавшись алфавитным указателем вверху страницы.


 
Ошибка в тексте? Выделите ошибку и нажмите Ctrl+Enter