Author/Artist: Incubus
Title: Wish you were here
Transcribed by: Saverain
Email: [email protected]

v strum down    / slide up   slide down
^ strum up     p  pull off     x scratch    h hammer on
m mute

I stole this tab from a blind kid on a motorized kart.
You can find more of his tabs at my site. 
http://www.geocities.com/saverain/
Enjoy 

-|----------------------------------------------------------------------------
-|----------------------------------------------------------------------------
-|----4-4p2----4-x-x-4--4p2---------------2-2p0-2-2p0---4-4p2----4-x-x-4--4p2-
-|----2-2------2-x-x-2--2---4--4-4-4/7--x-2-2---2-2-----2-2------2-x-x-2--2---
-|-0--------2--2-x-x-2--2---x--2-2-2/5--x-------2-2---0-------2--2-x-x-2--2---
-|--------------------------2--2-2-2/5----------------------------------------
  intr^ v  mv  ^ v ^ v  v  mv  ^ v ^ v mv ^ v  mv v  mv ^ ^  mv  ^ v ^ v  v  m 

---------------------------|--------------------------------------------------
---------------------------|--------------------------------------------------
----------------------9/11-|--4---4--4-4---4--4-4--4-4------------------------
--4--4-4-4/7--x-7-7-x-x-x--|--2---2--2-2---2--2-2--2-2-4---4--4/7--x-2-2-x-9--
--4--4-4-4/7--x-7-7-x-7/9--|--0---0--0-2---2--2-2--2-2-2---2--2/5--x-2-2-x-7--
--2--2-2-2/5--x-7-7-x------|--0---0--0-0---0--0-0--0-0-2---2--2/5--x-0-0-x-7--
  v  ^ v ^ v mv ^ v ^ v v     v   ^  ^ v   ^  ^ v  v ^ v   ^  ^ v mv ^ v ^ v  

----------------------------------------------------------|-------------------
----------------------------------------------------------|-------------------
-----4---4--4-4---4--4-4--4-4-----------------------------|-------------------
-9p7-2---2--2-2---2--2-2--2-2-4--4-4-4/7--x-2-2-x-9--9p7--|-------------------
-7---0---0--0-2---2--2-2--2-2-4--4-4-4/5--x-2-2-x-7--7----|-------------------
-7---0---0--0-0---0--0-0--0-0-2--2-2-2/5--x-0-0-x-7--7----|-------------------
    mv   ^  ^ v   ^  ^ v  v ^ v  ^ v ^ v mv ^ v ^ v  v  m                     

-|----------------------------------12----------------------------------------
-|----7---7---7------------------------9-10-------7---7---7-------------------
-|--9---9---9----------9-9---------------9------9---9---9---------------9-----
-|--------------11---------9h11--11-------------------------11-------11---11--
-|-------------------------9--------------------------------------12----------
-|----------------------------------------------------------------------------
    v ^ ^ ^ v ^ v      ^ ^ v     v  ^  v v      v ^ ^ ^ v ^ v     v  ^  v ^   

-------------------------------|----------------------------------------------
-9-----------------------------|----------------------------------------------
---9---------------------------|----------------------------------------------
-----11---11-11-11----11----11-|----------------------------------------------
-------------------16----16----|----------------------------------------------
-------------------------------|----------------------------------------------
v ^ v    ^  v  ^  v  ^  v  ^

Bridge: Not my favorite part of the song but the kid shure did
a good job.

-----0-0-0-0------------0-0--0-------------------0-0---0-0-0-0---
-----0-0-0-0------------0-0--0-------------------0-0---0-0-0-0---
-6-----------6---6-6-9--9-9--9--7-----7-7-7--7---7-7---7-7-7-7---
-x-----------x---x-x-x--x-x--x--x-----x-x-x--x-----------x-x-x---
-4-----------4---4-4-7--7-7--7--5-----5-5-5--5-----------5-5-5---
-----------------------------------------------------------------

------0-0------------------------------0-0-0---------0-0-0-0-0-0-
------0-0------------------------------0-0-0---------0-0-0-0-0-0-
-6-----------6---9-9-9-9-9-9-97--7-------------7----7-7-7-7-7-7-
-x-----------x---x-x-x-x-x-x-x-x--x-------------x----x-x-x-x-x-x-
-4-----------4---7-7-7-7-7-7-75--5-------------5----5-5-5-5-5-5-
-----------------------------------------------------------------

------0-0--0-0---------------------0-----------------------------
------0-0--0-0---------------------0-----------------------------
-6--------------6----9-9-9-9-9-9-9-7----7-7-7-7---12-12-12-12-12-
-x--------------x----x-x-x-x-x-x-x-x----x-x-x-x---x--x--x--x--x--
-4--------------4----7-7-7-7-7-7-7-5----5-5-5-5---10-10-10-10-10-
-----------------------------------------------------------------

------0-0--0-0------------------0-0-----0-0----------------------
------0-0--0-0------------------0-0-----0-0----------------------
-6--------------9----9-9----9-9------7-------12-12-12-12-12-12-12
-x--------------x----x-x----x-x------x-------x--x--x--x--x--x--x-
-4--------------7----7-7----7-7------5-------10-10-10-10-10-10-10
-----------------------------------------------------------------


Текст, аккорды и табулатура для песни "Wish You Were Here (ver 10)", исполняет "Incubus".
Используемые в песне аккорды можно найти в разделе Как брать аккорды. Аккорды для шестиструнной гитары. Другие песни можно найти на нашем сайте, воспользовавшись алфавитным указателем вверху страницы.


 
Ошибка в тексте? Выделите ошибку и нажмите Ctrl+Enter