Tabbed by Jeff Bimm   E mail me with any questions @ [email protected]
When Incubus Attacks: Acoustic Versions of Pardon Me, Stellar, and Make Yourself
Note: as always, these are interpretations of the artists? music and are not always exactly correct to the 
exact performance.


Pardon Me

Intro
e------------------------------------------------------------------------------------------0---|
b-----------------0-----------------------0-----------------------0----------------------0-----|Let ring
g---------4---------4-------------4---------4--------------4-------4-----------4------4--------|
d------2-----2--------2--------2----2---------2--------2----2-------2------2----2--------------|
a---4--------------------4---0--------------------0?4-----------------4-0----------------------|
e----------------------------------------------------------------------------------------------|

Intro Pt 2
e------------0------------------------------------------------------------------|
b------------2------------------------------------------------------------------|
g---6-------2-----6----2--------------6----2-----6------------------------------| Listen to recording for
d---6-------2-----6----2----2--------6----2-----6-----9-------------------------|      rhythm
a---4-------0-----4----0----2--------4----0-----4-----7---9----7----------------|
e-----------------------------0--------------------------------7----5-----------|

Verse
Note: Mike Plays variances and arpeggios of the notes listed
e----------------------------------------------------------------------|
b-----------------------------------0-------------7--------------------|
g---11----11---8---4-------7---6---4---9----8---8----------------------|
d---9------9----8---6---9---7---6---6---9----8---9-----7---------------|
a---11----7----6---4---9---5---4---6---7----6---9-----7----------------|
e-------------------------7-------------4-------------7-----5----------|

Chorus
e---------------------------------------------------------------------------------------------------|
b---------------------------------------------------------------------------------------------------|
g---6--4---2------------------------6--4--2---------------------6--2--4----9-9---6--2-4-------------|
d---6--4---2---4--2--4--2---------6--4--2---4--2--4--2------6--2--4----9-9---6--2-4--4-2-4-2--------|
a---4--2---0---4--2--4--2---------4--2--0---4--2--4--2------4--0--2----7-6---4--0-2--4-2-4-2--------|
e---------------2--0--2--0---------------------2--0--2--0-----------------------------------2-0-2-0-|


Bridge between chorus and second verse

d--6------2-----6---2--|
a--6------2-----6---2--|
e--4------0-----4---0--|


Variance solo
e----------0---------0----------0-----000-|
b----2----------2---------2-----------222-|
g-------4----4----4----4----4----4--444---|

order:
Intro x 2
Intro pt 2
Verse
Chorus
Bridge
Verse
Chorus
Intro x 2 (second time with solo variance)
Chorus
Intro pt 2 ( end on an E chord instead of the lead inn section)


Stellar


Verse
e--------------------------------------------------------------------------------------------|
b--------------------------------------------------------------------------------------------|
g---9-/-11-11b-/-6b---------------------------9-/-11-11b-/-6b--------------------------------|
d---9-/-11-11b-/-6b---6----6-6-------6------9-/-11-11b-/-6b--6------66----6-7----------------|
a-0------------------------4-4------7-7-----0------------------------4-4-------7-------------|
e--------------------------------------------------------------------------------------------|

build up

e----------------------------------------------------------------------------------------|
b----------------------------------------------------------------------------------------|
g---7--------4---------------------------------------------------------------------------|
d---7--------4---------------------------------------------------------------------------|
a---5--------2---------------------------------------------------------------------------|
e----------------------------------------------------------------------------------------|

Chorus

e-------------------------------------------------------------------------------|
b-------------------------------------------------------------------------------|
g---2-2----2-2------------------------------------------------------------------|
d---2-2----2-2--------------6-6----6-7------------------------------------------|
a---0-0----0-0----0?4-4------7--------------------------------------------------|
e-------------------------------------------------------------------------------|

bridge

e--------------------------------------------------------------------------------------|
b--------------------------------------------------------------------------------------|
g--9-/-11---9-9-/-6-6------------------------------------------------------------------|
d--9-/-11---9-9-/-6-6------------------------------------------------------------------|
a--------------------------------------------------------------------------------------|
e--------------------------------------------------------------------------------------|

Breakdown

e-------------------------------------------------------------------------------------------------0-|
b-----------------------------------------0------------------------------------------------------0--|
g-----------------------------------------0-------------------------------------------------------0-|
d------0-0----------0-0-----------0-----0----0------0-------2-2-----------2-2----------0----0-------|
a----7-----7-----7------7------5----5----------5----------2------2------2-----2------5---5----------|
e--5---------5-5-----------5-3-------------3------3-----0-----------0-0----------0-3----------------|

outro
Same as chorus except that in place of single strings he plays these chords
e-------------------------------------------------------------------------------------------------|
b-------------------------------------------------------------------------------------------------|
g---2-2--2-2---6-6--------------------------------------------------------------------------------|
d---2-2--2-2---6-6-6-6-7-6-7----------------------------------------------------------------------|
a---0-0--0-0---4-4-6-6-7-6-7----------------------------------------------------------------------|
e---------------------4-4-5-4-5-------------------------------------------------------------------|

Order
Verse x 4
Build up
Chorus
Bridge
Verse x4
Build up
Chorus
Breakdown
Chorus
Outro

Make Yourself
This Song changes time signatures through out most of the song, and I have yet to see it tabbed properly.
To play this song well, you need to listen to the recording to get the rhythm down.

Verse
e----------------------------------------------------------------------------------------|
b----------------------------------------------------------------------------------------|
g-4-------------------------------4------------------------------------------------------|
d-4--------------------0-2-0-----4------------------0-0-2-2-0----------------------------|
a-2--5-5---5-5-------1-1-1-----2--5-5--5-5------1-1-1-1-1--------------------------------|
e-----3-3?3-3----------------------3-3--3-3----------------------------------------------|

Chorus

e------------------------------------------------------------------------------------------|
b------------------------------------------------------------------------------------------|
g---7--------------------------------------------------------------------------------------|
d---7---8----5---3-------------------------------------------------------------------------|
a---5---8----5---3-------------------------------------------------------------------------|
e-------6----3---1-------------------------------------------------------------------------|

Extended chorus

e------------------------------------------------------------------------------------------|
b------------------------------------------------------------------------------------------|
g------------------------------------------------------------------------------------------|
d---7-----------7-----------------7--------------5---7-------------------------------------|
a---5--8--5----5----8---5--3----5--8--5-------3---5---8---5---3----------------------------|
e------6--3----------6--3--1--------6---3------3-------6---3----1--------------------------|

Break down

e---------------------------------------------------------------------------------------------|
b---------------------------------------------------------------------------------------------|
g---2--4--2-----------------------------------------------------------------------------------|
d---4--2--0---0-2-2-0----after eight times play-3-3--3?for the rest---------------------------|
a---------------1-1-1-1------------------------------1-1--1-----------------------------------|
e---------------------------------------------------------------------------------------------|

Bridge from break down to chorus

e------------------------------------------------------------------------------------------------------|
b------------------------------------------------------------------------------------------------------|
g------------------------------------------------------------------------------------------------------|
d--4--------------------0-0----the fourth time play -0-0-2-2-0-----------------------------------------|
a--2--5--5---5--5-----1-1-----------------------------1-1-1-1-1----------------------------------------|
e-----3--3---3--3--------------------------------------------------------------------------------------|


Outro

e------------------------------------------------------------------------------------------------|
b------------------------------------------------------------------------------------------------|
g------------------------------------------------------------------------------------------------|
d---4---------------------0-0-2-2-0--------------------------------------------------------------|
a---2-5-5---5-5---------1-1-1-1-1----------------------------------------------------------------|
e------3-3---3-3---------------------------------------------------------------------------------|


Order

Verse x4
Chorus
Verse x4
Extended Chorus
Break down x 12
Bridge from Breakdown to Chorus
Extended Chorus
Outro x 4


Текст, аккорды и табулатура для песни "When Incubus Attacks", исполняет "Incubus".
Используемые в песне аккорды можно найти в разделе Как брать аккорды. Аккорды для шестиструнной гитары. Другие песни можно найти на нашем сайте, воспользовавшись алфавитным указателем вверху страницы.


 
Ошибка в тексте? Выделите ошибку и нажмите Ctrl+Enter