Band: Incubus 
Song: Warning
Album: Morning View
Transcribed by: Reinaldo Gonzalez
Efects: Distortion, Echo, Flanger


Tuning: Standard

Intro: (flanger+Echo+light distortion)
|---------------------------------------|
|---------------------------------------|
|--8----6--8----6--8----6----4----3-----|
|--x----x--x----x--x----x----x----x-----|
|--6----4--6----4--6----4----2----1-----|
|--7----5--7----5--7----5----3----2-----|
                                           
And them!
|---------------------------------------------------------|
|---------------------------------------------------------|
|--8----6--8----6--8----6----4----4--(----X4----)---------|
|--x----x--x----x--x----x----x----5---4////--2//----------|
|--6----4--6----4--6----4----2----5---4////--2//----------|
|--7----5--7----5--7----5----3----3---2////--0//----------| 

Post-Intro: (Light distortion)                                                
|---------------------------------------------------------------|
|---------------------------------------------------------------|
|--4--4-4-4-4-4--6--6-6-6-6-)------4-4-4-4--3-3-3-3-------------|
|--4--4-4-4-4-4--x--x-x-x-x-)------x-x-x-x--x-x-x-x-------------|
|--2--2-2-2-2-2--4--4-4-4-4-)-x3---2-2-2-2--1-1-1-1-------------|
|--2--2-2-2-2-2--5--5-5-5-5-)------3-3-3-3--2-2-2-2-------------|

And them!
|---------------------------------------------------------------|
|---------------------------------------------------------------|
|--4--4-4-4-4-4--6--6-6-6-6-)------4-4-4-4--4-4-4-4-------------|
|--4--4-4-4-4-4--x--x-x-x-x-)------x-x-x-x--5-5-5-5-------------|
|--2--2-2-2-2-2--4--4-4-4-4-)-x3---2-2-2-2--5-5-5-5-------------|
|--2--2-2-2-2-2--5--5-5-5-5-)------3-3-3-3--3-3-3-3-------------|
                                                                 
Bridge 1: (Full distortion)
|-----------------------------------------------|
|-----------------------------------------------|
|--4--4-4-4-4-4--6--6-6-6-6---------------------|
|--4--4-4-4-4-4--x--x-x-x-x---------------------|
|--2--2-2-2-2-2--4--4-4-4-4---------------------| x3
|--2--2-2-2-2-2--5--5-5-5-5---------------------|

Verse 1: (flanger+Echo+light distortion)
|---------------------------------------|
|---------------------------------------|
|--8----6--8----6--8----6----4----3-----|
|--x----x--x----x--x----x----x----x-----|
|--6----4--6----4--6----4----2----1-----|
|--7----5--7----5--7----5----3----2-----|
                                           
And them!
|---------------------------------------------------------|
|---------------------------------------------------------|
|--8----6--8----6--8----6----4----4--(----X5----)---------|
|--x----x--x----x--x----x----x----5---4////--2//----------|
|--6----4--6----4--6----4----2----5---4////--2//----------|
|--7----5--7----5--7----5----3----3---2////--0//----------|

Chorus 1: (Full distortion)
|---------------------------------------------------------------|
|---------------------------------------------------------------|
|--4--4-4-4-4-4--6--6-6-6-6-)------4-4-4-4--3-3-3-3-------------|
|--4--4-4-4-4-4--x--x-x-x-x-)------x-x-x-x--x-x-x-x-------------|
|--2--2-2-2-2-2--4--4-4-4-4-)-x3---2-2-2-2--1-1-1-1-------------|
|--2--2-2-2-2-2--5--5-5-5-5-)------3-3-3-3--2-2-2-2-------------|

And them!
|---------------------------------------------------------------|
|---------------------------------------------------------------|
|--4--4-4-4-4-4--6--6-6-6-6-)------4-4-4-4--4-4-4-4-------------|
|--4--4-4-4-4-4--x--x-x-x-x-)------x-x-x-x--5-5-5-5-------------|
|--2--2-2-2-2-2--4--4-4-4-4-)-x3---2-2-2-2--5-5-5-5-------------|
|--2--2-2-2-2-2--5--5-5-5-5-)------3-3-3-3--3-3-3-3-------------|

Bridge 2: (flanger+Echo+light distortion)
|-----------------------|
|-----------------------|
|-----------------------|
|---4////--2//----------|
|---4////--2//----------| x12
|---2////--0//----------|

And them!
|-----------------------------------------|
|-----------------------------------------|
|--8----6--8----6--8----6----4>>>---------|
|--x----x--x----x--x----x----x>>>---------|
|--6----4--6----4--6----4----2>>>---------|
|--7----5--7----5--7----5----3>>>---------|

Chorus 2: (full distortion)
|---------------------------------------------------------------|
|---------------------------------------------------------------|
|--4--4-4-4-4-4--6--6-6-6-6-)------4-4-4-4--3-3-3-3-------------|
|--4--4-4-4-4-4--x--x-x-x-x-)------x-x-x-x--x-x-x-x-------------|
|--2--2-2-2-2-2--4--4-4-4-4-)-x3---2-2-2-2--1-1-1-1-------------|
|--2--2-2-2-2-2--5--5-5-5-5-)------3-3-3-3--2-2-2-2-------------|

Outro: (full distortion)
|---------------------------------------------------------------|
|---------------------------------------------------------------|
|--4--4-4-4-4-4--6--6-6-6-6-)------4-4-4-4--3-3-3-3-------------|
|--4--4-4-4-4-4--x--x-x-x-x-)------x-x-x-x--x-x-x-x-------------|
|--2--2-2-2-2-2--4--4-4-4-4-)-x3---2-2-2-2--1-1-1-1-------------|
|--2--2-2-2-2-2--5--5-5-5-5-)------3-3-3-3--2-2-2-2-------------|

And them!
|---------------------------------------------------------------|    |------|
|---------------------------------------------------------------|    |------|
|--4--4-4-4-4-4--6--6-6-6-6-)------4-4-4-4--4-4-4-4-------------|    |-4>>>-|
|--4--4-4-4-4-4--x--x-x-x-x-)------x-x-x-x--5-5-5-5-------------|    |-4>>>-|
|--2--2-2-2-2-2--4--4-4-4-4-)-x3---2-2-2-2--5-5-5-5-------------| x3 |-2>>>-|
|--2--2-2-2-2-2--5--5-5-5-5-)------3-3-3-3--3-3-3-3-------------|    |-2>>>-|


Cheers!


Текст, аккорды и табулатура для песни "Warning (ver 9)", исполняет "Incubus".
Используемые в песне аккорды можно найти в разделе Как брать аккорды. Аккорды для шестиструнной гитары. Другие песни можно найти на нашем сайте, воспользовавшись алфавитным указателем вверху страницы.


 
Ошибка в тексте? Выделите ошибку и нажмите Ctrl+Enter