Song: Warning
Band: Incubus
Album: Morning View
Transcribed by: Matt Hritz
email: [email protected]

If you find anything wrong, email me with proof. Cheers.

^- volume swell
(#)- echoed note
/ - repeated chord

Intro/verse
flanger/echo

|---------------------------------------
|---------------------------------------
|-8^-6^-8^-6^-8^-6^-4^-3^---------------
|-x^-x^-x^-x^-x^-x^-x^-x^---------------
|-6^-4^-6^-4^-6^-4^-2^-1^---------------
|-7^-5^-7^-5^-7^-5^-3^-2^---------------

pre-chorus/bridge
flanger/echo
|----------------------------------------------------
|----------------------------------------------------
|----------------------------------------------------
|-4-(4)(4)(4)(4)(4)-2-(2)--4-(4)(4)(4)(4)(4)--2-(2)--
|-4-(4)(4)(4)(4)(4)-2-(2)--4-(4)(4)(4)(4)(4)--2-(2)--
|-2-(2)(2)(2)(2)(2)-0-(0)--2-(2)(2)(2)(2)(2)--0-(0)--

|----------------------------------------------------
|----------------------------------------------------
|----------------------------------------------------
|-4-(4)(4)(4)(4)(4)-2-(2)--4-(4)(4)(4)(4)(4)--2-(2)--
|-4-(4)(4)(4)(4)(4)-2-(2)--4-(4)(4)(4)(4)(4)--2-(2)--
|-2-(2)(2)(2)(2)(2)-0-(0)--2-(2)(2)(2)(2)(2)--0-(0)--


first chorus
light dist.

|---------------------------------------
|---------------------------------------
|-4------------6------------------------
|-4-/-/-/-/-/--x-/-/-/-/-/--------------
|-2------------4------------------------
|-2------------5------------------------

|---------------------------------------
|---------------------------------------
|-4------------6------------------------
|-4-/-/-/-/-/--x-/-/-/-/-/--------------
|-2------------4------------------------
|-2------------5------------------------

|---------------------------------------
|---------------------------------------
|-4------------6------------------------
|-4-/-/-/-/-/--x-/-/-/-/-/--------------
|-2------------4------------------------
|-2------------5------------------------

|---------------------------
|---------------------------
|-4------------3------------
|-x-/-/-/-/-/--x-/-/-/-/-/--
|-2------------1------------
|-3------------2------------

First Chorus (no lyric chorus)
Distortion

|---------------------------------------
|---------------------------------------
|-4------------6------------------------
|-4-/-/-/-/-/--x-/-/-/-/-/--------------
|-2------------4------------------------
|-2------------5------------------------

|---------------------------------------
|---------------------------------------
|-4------------6------------------------
|-4-/-/-/-/-/--x-/-/-/-/-/--------------
|-2------------4------------------------
|-2------------5------------------------

|---------------------------------------
|---------------------------------------
|-4------------6------------------------
|-4-/-/-/-/-/--x-/-/-/-/-/--------------
|-2------------4------------------------
|-2------------5------------------------

|---------------------------------------
|---------------------------------------
|-4------------6------------------------
|-4-/-/-/-/-/--x-/-/-/-/-/--------------
|-2------------4------------------------
|-2------------5------------------------

Chorus:
Distortion

|---------------------------------------
|---------------------------------------
|-4------------6------------------------
|-4-/-/-/-/-/--x-/-/-/-/-/--------------
|-2------------4------------------------
|-2------------5------------------------

|---------------------------------------
|---------------------------------------
|-4------------6------------------------
|-4-/-/-/-/-/--x-/-/-/-/-/--------------
|-2------------4------------------------
|-2------------5------------------------

|---------------------------------------
|---------------------------------------
|-4------------6------------------------
|-4-/-/-/-/-/--x-/-/-/-/-/--------------
|-2------------4------------------------
|-2------------5------------------------

|---------------------------------------
|---------------------------------------
|-4------------6------------------------
|-4-/-/-/-/-/--x-/-/-/-/-/--------------
|-2------------4------------------------
|-2------------5------------------------

Ending Note:

|-----|
|-----|
|--4--|
|--4--|
|--2--|
|--2--|


Текст, аккорды и табулатура для песни "Warning", исполняет "Incubus".
Используемые в песне аккорды можно найти в разделе Как брать аккорды. Аккорды для шестиструнной гитары. Другие песни можно найти на нашем сайте, воспользовавшись алфавитным указателем вверху страницы.


 
Ошибка в тексте? Выделите ошибку и нажмите Ctrl+Enter