Band: Incubus
Song: Just a Phase
Album: Morning View
Tabbed By: FaTSkUnK

I saw it in the morning view session.
Maybe it's not perfect but I thing it's very near

Intro
   X4
e|---------------------------------------0---0--0--0--0--0---0---0---0---0--0-|
b|---------------------------------------0---0--0--0--0--0---0---0---0---0--0-|
G|---------------6---4-------------------11--11-11-11-11-11--11--11--11--11-11|
D|-------0h4-5-0---7---5-----5---------0-0---0--0--0--0--0---0---0---0---0--0-|
A|-----4-----------------5h7---5-----9---9---9--9--9--9--9---9---9---9---9--9-|
E|-0h5---------------------------5-7-----7---7--7--7--7--7---7---7---7---7--7-|


e|-----------------------------0---0--0--0--0--0---0---0---0---0--0--
B|-----------------------------0---0--0--0--0--0---0---0---0---0--0--
G|-1--1-1-1-1-1--1--1--1--1-1--11--11-11-11-11-11--11--11--11--11-11-
D|-2--2-2-2-2-2--2--2--2--2-2--0---0--0--0--0--0---0---0---0---0--0--
A|-2--2-2-2-2-2--2--2--2--2-2--9---9--9--9--9--9---9---9---9---9--9--
E|-0--0-0-0-0-0--0--0--0--0-0--7---7--7--7--7--7---7---7---7---7--7--

  ----------------------------|
  ----------------------------|
  -1--1-1-1-1-1--1--1--1--1-1-|
  -2--2-2-2-2-2--2--2--2--2-2-|
  -2--2-2-2-2-2--2--2--2--2-2-|
  -0--0-0-0-0-0--0--0--0--0-0-|


- Intro X4


e|-----------------------------0---0--0--0--0--0---0---0---0---0--0--
B|-----------------------------0---0--0--0--0--0---0---0---0---0--0--
G|-1--1-1-1-1-1--1--1--1--1-1--11--11-11-11-11-11--11--11--11--11-11-
D|-2--2-2-2-2-2--2--2--2--2-2--0---0--0--0--0--0---0---0---0---0--0--
A|-2--2-2-2-2-2--2--2--2--2-2--9---9--9--9--9--9---9---9---9---9--9--
E|-0--0-0-0-0-0--0--0--0--0-0--7---7--7--7--7--7---7---7---7---7--7--

  --------------------------------------------------------
  --------------------------------------------------------
  -1--1-1-1-1-1--1--1--1--1-1--4--4-4-4-4-4--4--4--4--4-4-
  -2--2-2-2-2-2--2--2--2--2-2--5--5-5-5-5-5--5--5--5--5-5-
  -2--2-2-2-2-2--2--2--2--2-2--5--5-5-5-5-5--5--5--5--5-5-
  -0--0-0-0-0-0--0--0--0--0-0--3--3-3-3-3-3--3--3--3--3-3-

  ----------------------------|
  ----------------------------|
  -3--3-3-3-3-3--3--3--3--3-3-|
  -4--4-4-4-4-4--4--4--4--4-4-|
  -4--4-4-4-4-4--4--4--4--4-4-|
  -2--2-2-2-2-2--2--2--2--2-2-|

Verse

e|---------------------------------------|--------------|
B|-------0-------------------------0-----|-----5--------|
G|-------1------------0------------1-----|-----6--------|
D|-----2---2--------4-5-4--------2---2---|---6----6-----|
A|---2-------2----5-------5----2-------2-|-4----------6-|
E|-0------------3------------0-----------|----------4---|


e|---------------------------------------|--------------|
B|-------0-------------------------0-----|-----5--------|
G|-------1------------0------------1-----|----6---------|
D|-----2---2--------4-5-4--------2---2---|---6----6-----|
A|---2-------2----5-------5----2-------2-|-4----------6-|
E|-0------------3------------0-----------|----------4---|

Pre-chorus

e|-------------------------------------------------------------------------------|
B|-------------------------------------------------------------------------------|
G|-------0---------------------0-----------------0--------------------0----------|
D|-----6---6-----------------6---6-------------6---6----------------6---6--------|
A|---4-------4-----4---4---4-------4----3----4-------4----4---4---4-------4----3-|
E|-5-------------5---4---5------------5----5------------5---4---5------------5---|

Chorus
  pm..................................
e|------------------------------------|
b|------------------------------------|
G|-5-5-5------------------------------|
D|-5-5-5-6-6-2-2--7--7-7--7-7---5-5-5-|
A|-3-3-3-6-6-2-2--7--7-7--7-7---5-5-5-|
E|-------4-4-0-0--5--5-5--5-5---3-3-3-|


- Verse
- Pre-chorus
- Chorus (palm muted)
- Chorus (not palm muted)


Текст, аккорды и табулатура для песни "Just A Phase", исполняет "Incubus".
Используемые в песне аккорды можно найти в разделе Как брать аккорды. Аккорды для шестиструнной гитары. Другие песни можно найти на нашем сайте, воспользовавшись алфавитным указателем вверху страницы.


 
Ошибка в тексте? Выделите ошибку и нажмите Ctrl+Enter