Intro & Chorus (2x)

e|-----------------------------------------------------|
B|-----------------------------------------------------|
G|--7-7--8--5---7---7--8--5----------------------------|
D|--7-7--8--5---7---7--8--5--7--7-7--5--8--8--x-x------|
A|--5-5--6--3---5---5--6--3--7--7-7--5--8--8--x-x------|
E|--5-5--6--3---5---5--6--3--5--5-5--3--6--6--x-x------|


Verse (3x)

e|--14---7---2-----------2------------|
B|--13---6---1-------1-------1--------|
G|--14---7---2-----2---2-------2------|
D|---------------0--------------------|
A|------------------------------------|
E|------------------------------------|


-Chorus (2x)

Verse (3x)
			    (1st) (2nd) (3rd)
e|--14---7---2-----------2-|-2--|-----|-------|
B|--13---6---1-------1-----|-1--|---2-|-----1-|
G|--14---7---2-----2---2---|-2--|-3---|---2---|
D|---------------0---------|----|-----|-0-----|
A|-------------------------|----|-----|-------|
E|-------------------------|----|-----|-------|


-Chorus (3x)


(4x)
e|--7-------------------|
B|--7---3-4-3---0-1-0---|
G|--7-------------------|
D|----------------------|
A|----------------------|
E|----------------------|

(4x)
e|------------------------------------|
B|------------------------------------|
G|------------------------------------|
D|--5--5---5-5--5-5--5-5--5-5---------|
A|--5--5---5-5--5-5--5-5--5-5---------|
E|--3--3---3-3--3-3--3-3--3-3---------|


e|--14---7---2---2-2-2-2-2-2-2------|
B|--13---6---1---1-1-1-1-1-1-1------|
G|--14---7---2---2-2-2-2-2-2-2------|
D|----------------------------------|
A|----------------------------------|
E|----------------------------------|


-Chorus (2x)

(2nd time)                                 pm . . . . . . .
e|-----------------------------------------------------------|
B|-----------------------------------------------------------|
G|--7-7--8--5---7---7--8--5----------------------------------|
D|--7-7--8--5---7---7--8--5--7--7-7--5--8--8--8-8-8-8-8-8-8--|
A|--5-5--6--3---5---5--6--3--7--7-7--5--8--8--8-8-8-8-8-8-8--|
E|--5-5--6--3---5---5--6--3--5--5-5--3--6--6--6-6-6-6-6-6-6--|


  									     pm . . . . . .
e|--------------------------------------------------------------------------------------------|
B|--------------------------------------------------------------------------------------------|
G|--7--7--x-x---8-x---5-5--7-x-x-7--x-x-8-x--5-5----------------------------------------------|
D|--7--7--x-x---8-x---5-5--7-x-x-7--x-x-8-x--5-5----7-x-x--7-x-x-7-x- 5-5--8--8--8-8-8-8-8-8--|
A|--5--5--x-x---6-x---3-3--5-x-x-5--x-x-6-x--3-3----7-x-x--7-x-x-7-x--5-5--8--8--8-8-8-8-8-8--|
E|--5--5--x-x---6-x---3-3--5-x-x-5--x-x-6-x--3-3----5-x-x--5-x-x-5-x--3-3--6--6--6-6-6-6-6-6--|

									      pm . . . . . . 	
e|--------------------------------------------------------------------------------------------|
B|--------------------------------------------------------------------------------------------|
G|--7--7--x-x---8-x---5-5--7-x-x-7--x-x-8-x--5-5----------------------------------------------|
D|--7--7--x-x---8-x---5-5--7-x-x-7--x-x-8-x--5-5----7-x-x--7-x-x-7-x- 5-5--8--8--5-5-5-5-5-5--|
A|--5--5--x-x---6-x---3-3--5-x-x-5--x-x-6-x--3-3----7-x-x--7-x-x-7-x--5-5--8--8--5-5-5-5-5-5--|
E|--5--5--x-x---6-x---3-3--5-x-x-5--x-x-6-x--3-3----5-x-x--5-x-x-5-x--3-3--6--6--3-3-3-3-3-3--|


Текст, аккорды и табулатура для песни "Idiot Box", исполняет "Incubus".
Используемые в песне аккорды можно найти в разделе Как брать аккорды. Аккорды для шестиструнной гитары. Другие песни можно найти на нашем сайте, воспользовавшись алфавитным указателем вверху страницы.


 
Ошибка в тексте? Выделите ошибку и нажмите Ctrl+Enter