Song: Crowded Elevator
Band: Incubus
Album: When Incubus Atacks vol 1

this is the only new release of this album, 
but even if it was the only song on it, I'd still buy it 

intro

e|----------------------------|-----------------------------|
B|----------------------------|-----------------------------|
G|----------------------------|-----------------------------|
D|--------------------------0-|-------7---6----7---6--------|
A|-------7-----7b----------5--|-----7---7----7---7----7---7-|
E|-0--0-----0-----5--4--4-----|-0-----------------------4---|

     bend--
e|-0-0-0-0-0-------------------|
B|-5-5-5-5-5-------------------|
G|-----------------------------|
D|----------------7-7-----7----|
A|------------5-5-5-5-5-5-5--2-|
E|------------3-3-----3-3----0-|

verse

e|-----------------|
B|-----------------|
G|-----------------|
D|---7---6-------0-|
A|-7---7--------5--|
E|----------5-4----|

prechorus

e|-----------------------|
B|-----------------------|
G|-----------------------|
D|-----------------------|
A|-7-7-7-------------6-6-|
E|-------5-5-5-4-4-4-4-4-|

chorus
                                   bend-
e|-------------------------------0-0-0-0-0------------------|
B|-------------------------------5-5-5-5-5------------------|
G|----------------------------------------------------------|
D|----------------7-7-----7--------------------7-7-----7----|
A|---5---7----6-6-5-5-6-6-5--2-------------5-5-5-5-5-5-5--2-|
E|-4---4------4-4-----4-4----0-------------3-3-----3-3----0-|

interlude

  
e|---3---3-----6---6--|  this is as close as i can come 
B|--3-3---3---5-5---5-|  with all the effects 
G|--------------------|  
D|-2----2----5----5---|  
A|--------------------|  
E|--------------------|


Текст, аккорды и табулатура для песни "Crowded Elevator", исполняет "Incubus".
Используемые в песне аккорды можно найти в разделе Как брать аккорды. Аккорды для шестиструнной гитары. Другие песни можно найти на нашем сайте, воспользовавшись алфавитным указателем вверху страницы.


 
Ошибка в тексте? Выделите ошибку и нажмите Ctrl+Enter