#----------------------------------PLEASE NOTE--------------------------------#
#This file is the author's own work and represents their interpretation of the#
#song. You may only use this file for private study, scholarship, or research.#
#-----------------------------------------------------------------------------#
#-- File created with Instab - http://www.pconline.com/~smcarey/instab.html --#
#-----------------------------------------------------------------------------#

Author/Artist: incubus
Title: certain shade of green(improvising)
Transcribed by: sebastian giancaspro
Email: [email protected]


[email protected]---------9---|
-------------------------7-7-5/6-5-7-5---3-5-5/7-5---5---6-6/8-6-6p5-5-3/79---|
--4/6-4/6------------------------------7-----------7---7------------------9---|
------------------------------------------------------------------------------|
------------------------------------------------------------------------------|
------------------------------------------------------------------------------|


-9-x-10-10/12-12-12-12p10-9-10-9----9b9-7h9-9/10-9/10-9-7-5h7-7-7/8-8-8-8-8---|
-9-x-----------------------------12-------------------------------------------|
-9-x--------------------------------------------------------------------------|
------------------------------------------------------------------------------|
------------------------------------------------------------------------------|
------------------------------------------------------------------------------|


------------------------------------------------------------------------------|
------------------------------------------------------------------------------|
------------------------------------------------------------------------------|
------------------------------------------------------------------------------|
------------------------------------------------------------------------------|
------------------------------------------------------------------------------|


Текст, аккорды и табулатура для песни "Certain Shade Of Green", исполняет "Incubus".
Используемые в песне аккорды можно найти в разделе Как брать аккорды. Аккорды для шестиструнной гитары. Другие песни можно найти на нашем сайте, воспользовавшись алфавитным указателем вверху страницы.


 
Ошибка в тексте? Выделите ошибку и нажмите Ctrl+Enter