beware!criminal                        

tabbed by max s

i haven't bothered to put the correct strumming in for some parts of the song
(such as the chorus), but they're easy to work out

verse

-----------------------------------------------
------------7-7-7--------7-7-7-----------------
---6-6------x-x-x-6--6---x-x-x-6---------------
---x-6------4-4-4-x--6---4-4-4-x-7---------2---
---4--------------4------------4-7---------2---
----(b)--0----------(b)-0--------5---------0---  (the E chord is before it goes
into the chorus)

chorus 'you came...' 

-----------------------------------------
-------6------------------------6--------
--2----x---------------------2--x--------
--2----3------------------3--2--3-4-3-2--
--0-------4---4---444-----3--0----4-3-2--
----------2-0-2-0-222-0---1-------2-1-0--

'yeh I'm down'

-----------------------
-----4-----5------555--
--2--x-6-2-x-7----xxx--
--2--1-6-2-2-7-4--222--
--0----4-0---5-4-------
---------------2-------   (not sure about second chord)

verse

chorus

bridge

-----------------------------------
-----------------------------------
-----------------------------------
-----------------------------------
------4-----4/2-----4-----4/7------
--2-2---0-0-----2-2---0-0----------

-----------------------------------
-----------------------------------
-----------------------------------
-4-4-------------------------------
-----4--7-7--4------4-----4/2------
--------0-0-----2-2---0-0----------  (as many times as needed)

then the chorus is played, but the first few strings are strummed once.
just play along and you should be fine :)


Текст, аккорды и табулатура для песни "Beware Criminal", исполняет "Incubus".
Используемые в песне аккорды можно найти в разделе Как брать аккорды. Аккорды для шестиструнной гитары. Другие песни можно найти на нашем сайте, воспользовавшись алфавитным указателем вверху страницы.


 
Ошибка в тексте? Выделите ошибку и нажмите Ctrl+Enter