Song: Are You In
Artist: Incubus
Tabbed by: jps19

*to all of us without bass guitars!!! rock on!!!!
this is 100 frickin % accurate!!!!!

E|------------------------------------------------|
B|------------------------------------------------|
D|-2h4p2------------------------------------------|
G|-------4p2--------------------------------------|
A|----------*5--5p2-0-----------------0—0h2p0-----|
E|---------------------0h1-2--0-2p0-2-------------|

E|---------------------------------------------|
B|---------------------------------------------|
D|---------------------------------------------|
G|-5—5p2-0-------------------------------------|
A|-----------------2-2-0—0h2p0-----------------|(repeat *)
E|----------0h1-2------------------------------|


Текст, аккорды и табулатура для песни "Are You In", исполняет "Incubus".
Используемые в песне аккорды можно найти в разделе Как брать аккорды. Аккорды для шестиструнной гитары. Другие песни можно найти на нашем сайте, воспользовавшись алфавитным указателем вверху страницы.


 
Ошибка в тексте? Выделите ошибку и нажмите Ctrl+Enter