Tuning:  EADGBE (STANDARD)
Intro
*sound effects
e|--12---------12----------5-------------------------------|
B|--10---------10----------2-------8-----------------------|
G|--11---------11------------------------------------------|
D|--12---------12------------------------------------------|
A|---------------------------------------------------------|
E|---------------------------------------------------------|
Intro Continued
e|-12---12---9----9---5---4---2-------12-------------------|
B|-10---10---7----7---2---2---2---5---10-------------------|
G|-11---11----------------------------11-------------------|
D|-12---12----------------------------12-------------------|
A|---------------------------------------------------------|
E|---------------------------------------------------------|
Intro Continued- Repeat this, listen to song
e|----------12---------------------------------------------|
B|------12-------------------------------------------------|
G|---------------------------------------------------------|
D|---7----------9------------------------------------------|
A|-7-------------------------------------------------------|
E|---------------------------------------------------------|
Verse 1- Repeat
e|----------12----------------12------12-------------------|
B|-------12----------------12------------------------------|
G|---------------------------------------------------------|
D|----7---------9-------7---------9------------------------|
A|--7-----------------7-------------------9-9-9-9----------|
E|---------------------------------------------------------|
Chorus- Repeat
*use delay
e|-12---9-------5-----------------------------------------|
B|-10---7-------2-----------------------------------------|
G|-11-----------------------------------------------------|
D|-12-----------------------------------------------------|
A|--------------------------------------------------------|
E|--------------------------------------------------------|
Interlude- There are added bends and hammer ons
e|----------------------------5--5------------------------|
B|-------------------------------x------------------------|
G|--------2--4-(4)-------2--4----4-(4)-2-4--4-------------|
D|--2--4------------2-4-----------------------2-4---------|
A|------------------------------------------------2-------|
E|--------------------------------------------------------|
Verse 2- Again, hammer ons and bends are included
e|------------------------------------17------------------|
B|--------------------------------------------------------|
G|---------------2--------------14-16----16-14-14----14---|
D|---------2-2-4---4------14-16----------------14-16-14---|
A|-(2)-2-4-----------x-x----------------------------------|
E|--------------------------------------------------------|
Verse 2 Continued
e|----------12--------------------------------------------|
B|-------12-----------------------------------------------|
G|--------------------------------------------------------|
D|----7--------9--(9)-------------------------------------|
A|--7-----------------------------------------------------|
E|--------------------------------------------------------|


Текст, аккорды и табулатура для песни "Are You In?", исполняет "Incubus".
Используемые в песне аккорды можно найти в разделе Как брать аккорды. Аккорды для шестиструнной гитары. Другие песни можно найти на нашем сайте, воспользовавшись алфавитным указателем вверху страницы.


 
Ошибка в тексте? Выделите ошибку и нажмите Ctrl+Enter