#----------------------------------PLEASE NOTE---------------------------------#
#This file is the author's own work and represents their interpretation of the #
#song. You may only use this file for private study, scholarship, or research. #
#------------------------------------------------------------------------------#

Artist: In Flames
Song: Zombie Inc.
Album: Colony
Contact: [email protected]


Eb :----------------|----------------|----------------|----------------|
Bb :----------------|----------------|----------------|----------------|
F  :0---------------|----------------|3---------------|----------------|
C  :--------------0-|----------------|--------------3-|----------------|

Eb :----------------|----------------|----------------|----------------|
Bb :----------------|----------------|----------------|----------------|
F  :0---------------|----------------|3-------------5-|----------------|
C  :--------------0-|----------------|----------------|----------------|

Eb :----------------|----------------|----------------|----------------|
Bb :----------------|----------------|----------------|----------------|
F  :2---------------|----------------|5---------------|----------------|
C  :--------------2-|----------------|--------------5-|----------------|

Eb :----------------|----------------|----------------|----------------|
Bb :----------------|----------------|----------------|----------------|
F  :2---------------|----------------|5-------------7-|----------------|
C  :--------------2-|----------------|----------------|----------------|

Eb :|*----------------|----------------|----------------|
Bb :| ----------------|----------------|----------------|
F  :| ----------------|----------------|----------------|
C  :| 5-5-5-5-5-5-5-5-|5-5-5-5-5-5-0---|1-1-1-1-1-1-1-1-|

Eb :----------------|----------------|----------------|----------------|
Bb :----------------|----------------|----------------|----------------|
F  :----------------|----------------|----------------|----------------|
C  :1-1-1-1-1-1-3---|5-5-5-5-5-5-5-5-|5-5-5-5-5-5-0---|1-1-1-1-1-1-1-1-|

Eb :----------------*1|----------------|----------------|
Bb :---------------- ||----------------|----------------|
F  :------3-2-3-5--- ||----------------|0---------------|
C  :1-1-1----------- ||1---------------|----------------|

Eb :----------------|----------------|----------------|----------------|
Bb :----------------|----------------|----------------|----------------|
F  :----------------|3---------------|----------------|0---------------|
C  :3---------------|----------------|1---------------|----------------|

Eb :----------------|----------------||*----------------|
Bb :----------------|----------------|| ----------------|
F  :----------------|3-*-------------|| ----------------|
C  :3---------------|----------------|| 5-5-5-5-5-5-5-5-|

Eb :----------------|----------------|----------------|----------------|
Bb :----------------|----------------|----------------|----------------|
F  :----------------|----------------|----------------|----------------|
C  :5-5-5-5-5-5-0---|1-1-1-1-1-1-1-1-|1-1-1-1-1-1-3---|5-5-5-5-5-5-5-5-|

Eb :----------------|----------------|----------------*1|
Bb :----------------|----------------|---------------- ||
F  :----------------|----------------|------3-2-3-5--- ||
C  :5-5-5-5-5-5-0---|1-1-1-1-1-1-1-1-|1-1-1----------- ||

Eb :----------------|----------------|----------------|----------------|
Bb :----------------|----------------|----------------|----------------|
F  :----------------|0---------------|----------------|3---------------|
C  :1---------------|----------------|3---------------|----------------|

Eb :----------------|----------------|----------------|----------------|
Bb :----------------|----------------|----------------|----------------|
F  :----------------|0---------------|----------------|3---------------|
C  :1---------------|----------------|3---------------|----------------|

Eb :----------------|----------------|----------------|----------------|
Bb :----------------|----------------|----------------|----------------|
F  :----------------|0---------------|----------------|3---------------|
C  :1---------------|----------------|3---------------|----------------|

Eb :----------------|----------------|----------------|----------------|
Bb :----------------|----------------|----------------|----------------|
F  :----------------|0---------------|----------------|3---------------|
C  :1---------------|----------------|3---------------|----------------|

Eb :----------------|----------------|----------------|----------------|
Bb :----------------|----------------|----------------|----------------|
F  :3---*-----------|--------------2-|----------------|--------------5-|
C  :----------------|0---------------|----------------|3---------------|

Eb :----------------|----------------|----------------|----------------|
Bb :----------------|----------------|----------------|----------------|
F  :----------------|--------------2-|----------------|--------------5-|
C  :----------------|0---------------|----------------|3---------------|

Eb :----------------|----------------|----------------|----------------|
Bb :----------------|----------------|----------------|----------------|
F  :----------------|--------------2-|----------------|--------------5-|
C  :----------------|0---------------|----------------|3---------------|

Eb :----------------|----------------|----------------|
Bb :----------------|----------------|----------------|
F  :----------------|--------------2-|----------------|
C  :----------------|0---------------|----------------|

Eb :------------------|------------------|------------------|
Bb :------------------|------------------|------------------|
F  :----------------5-|----5---5---5-5-5-|----------------5-|
C  :3-----3---3-3-3---|------------------|3-----3---3-3-3---|

Eb :------------------|----------------|----------------|
Bb :------------------|----------------|----------------|
F  :----5---5---5-5-5-|----------------|----------------|
C  :------------------|0---------------|----------------|

Eb :----------------|----------------|----------------|----------------|
Bb :----------------|----------------|----------------|----------------|
F  :----------------|----------------|----------------|----------------|
C  :----------------|----------------|*---------------|----------------|

Eb :----------------|----------------|----------------|----------------|
Bb :----------------|----------------|----------------|----------------|
F  :----------------|----------------|----------------|----------------|
C  :----------------|----------------|----------------|----------------|

Eb :----------------|----------------|----------------|----------------|
Bb :----------------|----------------|----------------|----------------|
F  :----------------|----------------|----------------|----------------|
C  :----------------|----------------|----------------|----------------|

Eb :----------------|----------------|----------------|----------------|
Bb :----------------|----------------|----------------|----------------|
F  :----------------|----------------|----------------|----------------|
C  :----------------|----------------|----------------|----------------|

Eb :----------------|----------------|----------------|----------------|
Bb :----------------|----------------|----------------|----------------|
F  :----------------|----------------|----------------|----------------|
C  :----------------|----------------|----------------|----------------|

Eb :----------------|----------------|----------------|----------------|
Bb :----------------|----------------|----------------|----------------|
F  :----------------|5-5-5-5-2-2-2-2-|--------------2-|----------------|
C  :----------------|----------------|0---------------|----------------|

Eb :----------------|----------------|----------------|----------------|
Bb :----------------|----------------|----------------|----------------|
F  :3-------------5-|----------------|--------------2-|----------------|
C  :----------------|----------------|0---------------|----------------|

Eb :----------------|----------------||*----------------|
Bb :----------------|----------------|| ----------------|
F  :3-------------5-|----------------|| 7---7-7-7-7-7-7-|
C  :----------------|----------------|| ----------------|

Eb :----------------|----------------|----------------*1|
Bb :----------------|----------------|---------------- ||
F  :----------------|3---3-3-3-3-3-3-|5---5-5-5-5-5-5- ||
C  :7---7-7-7-7-7-7-|----------------|---------------- ||

Eb :----------------|----------------|----------------|----------------|
Bb :----------------|----------------|----------------|----------------|
F  :7-------*-------|----------------|----------------|----------------|
C  :----------------|----------------|----------------|----------------|

Eb :----------------|----------------|----------------|----------------|
Bb :----------------|----------------|----------------|----------------|
F  :----------------|----------------|----------------|5-5-5-5-2-2-2-2-|
C  :----------------|----------------|----------------|----------------|

Eb :|*----------------|----------------|----------------|
Bb :| ----------------|----------------|----------------|
F  :| ----------------|----------------|----------------|
C  :| 5-5-5-5-5-5-5-5-|5-5-5-5-5-5-0---|1-1-1-1-1-1-1-1-|

Eb :----------------|----------------|----------------|----------------|
Bb :----------------|----------------|----------------|----------------|
F  :----------------|----------------|----------------|----------------|
C  :1-1-1-1-1-1-3---|5-5-5-5-5-5-5-5-|5-5-5-5-5-5-0---|1-1-1-1-1-1-1-1-|

Eb :----------------*1|----------------|----------------|
Bb :---------------- ||----------------|----------------|
F  :------3-2-3-5--- ||----------------|0---------------|
C  :1-1-1----------- ||1---------------|----------------|

Eb :----------------|----------------|----------------|----------------|
Bb :----------------|----------------|----------------|----------------|
F  :----------------|3---------------|----------------|0---------------|
C  :3---------------|----------------|1---------------|----------------|

Eb :----------------|----------------|----------------|----------------|
Bb :----------------|----------------|----------------|----------------|
F  :----------------|3---*-----------|----------------|0---------------|
C  :3---------------|----------------|1---------------|----------------|

Eb :----------------|----------------|----------------|----------------|
Bb :----------------|----------------|----------------|----------------|
F  :----------------|3---------------|----------------|0---------------|
C  :3---------------|----------------|1---------------|----------------|

Eb :----------------|----------------|----------------|
Bb :----------------|----------------|----------------|
F  :----------------|3---------------|3---*-----------|
C  :3---------------|----------------|----------------|

Eb :|*----------------|----------------|----------------|
Bb :| ----------------|----------------|----------------|
F  :| --------------2-|----------------|--------------5-|
C  :| 0---------------|----------------|3---------------|

Eb :----------------|----------------|----------------|----------------|
Bb :----------------|----------------|----------------|----------------|
F  :----------------|--------------2-|----------------|--------------5-|
C  :----------------|0---------------|----------------|3---------------|

Eb :----------------|----------------|----------------|----------------|
Bb :----------------|----------------|----------------|----------------|
F  :----------------|--------------2-|----------------|--------------5-|
C  :----------------|0---------------|----------------|3---------------|

Eb :----------------|----------------|----------------|
Bb :----------------|----------------|----------------|
F  :----------------|--------------2-|----------------|
C  :----------------|0---------------|----------------|

Eb :------------------|------------------*1|----------------|
Bb :------------------|------------------ ||----------------|
F  :----------------5-|----5---5---5-5-5- ||--------------2-|
C  :3-----3---3-3-3---|------------------ ||0---------------|

Eb :----------------|----------------|----------------|----------------|
Bb :----------------|----------------|----------------|----------------|
F  :----------------|--------------5-|----------------|--------------2-|
C  :----------------|3---------------|----------------|0---------------|

Eb :----------------|----------------|----------------|----------------|
Bb :----------------|----------------|----------------|----------------|
F  :----------------|--------------5-|----------------|--------------2-|
C  :----------------|3---------------|----------------|0---------------|

Eb :----------------|----------------|----------------|----------------|
Bb :----------------|----------------|----------------|----------------|
F  :----------------|--------------5-|----------------|--------------2-|
C  :----------------|3---------------|----------------|0---------------|

Eb :----------------|------------------|------------------|
Bb :----------------|------------------|------------------|
F  :----------------|----------------5-|----5---5---5-5-5-|
C  :----------------|3-----3---3-3-3---|------------------|

Eb :----------------|
Bb :----------------|
F  :----------------|
C  :0---------------|


Текст, аккорды и табулатура для песни "Zombie Inc", исполняет "In Flames".
Используемые в песне аккорды можно найти в разделе Как брать аккорды. Аккорды для шестиструнной гитары. Другие песни можно найти на нашем сайте, воспользовавшись алфавитным указателем вверху страницы.


 
Ошибка в тексте? Выделите ошибку и нажмите Ctrl+Enter