.  - palm mute                          /  - slide up to                       
  - slide down to                      ~  - vibrato                            
"  - tremelo picking 
 
Tuning: C (C,F,A#,D#,G,C) 
 
Feedback in the key of C starts off 
in this song, from the previous song (Moonshield). 
 
Riff A (lots of echo, reverb, slight flanger, and delay)   
----------------------------------------------------------|  
----------------------------------------------------------|  
|-----9--7----------------------------9--7-----------9-10-7-9-10-7-9--|  
|--7--------10------------------------------10------------------------|  
-----------------------8--------------10------------------|  
----------------------------------------------------------|  
|                                                                     |  
----------------------------------------------------------|  
----------------------------------------------------------|   
----------------------------------------------------------|
|--5---5-5-5---5-5-5---5-5-5---5-5-1---1-1-1---1-1-3---3-3-3---3-3----|   
                                                          (End Riff A)   
  
Repeat Riff A 4 times, but on last time the bass rhythm ends  
differently, although the notes stay the same.  
   
  
Riff B1  
---------------------------------------------------------|   
---------------------------------------------------------|   
|----9-7--------------9--7------------9--10--7------9-10-7-9-10-7-9--|  
|--7-----10-----------------10---------------------------------------|  
-------8--------------10--------------10-----------------|  
---------------------------------------------------------|  
|                                                                    |  
---------------------------------------------------------|  
---------------------------------------------------------|  
---------------------------------------------------------|  
|--5---5-5-5---5-5-1---1-1-1---1-1-3---3-3-3---3-3-3---3-3-3----3-3--|  
                                                        (End Riff B1)   
  
Repeat Riff B1 twice, but on the second time the bass rhythm ends  
differently although the notes stay the same.  
Then, continue to repeat Riff B1 with riff B2 underneath,  
and end the bass rhythm differently on the last time.  
  
  
  
Riff B2  
-------------------------------------------------|  
-------------------------------------------------|  
-------------------------------------------------| GTR II  
|-14~------------------10-12--9~-(9)--9--7-5~-----5--/(10)---|  
-------/12---------------------------------------|  
-------------------------------------------------|  
|                                                            |  
-------------------------------------------------|  
-------------------------------------------------|  
|-12-(12~)-(12)--------9-10---------------------------------| GTR III  
--------10-------12~-12--12-10-9~--9--9---------|  
-------------------------------------------------|  
-------------------------------------------------|  
  
  
|----12-10-12----12-10-12----12-10-12-13-12-10---------------|  
|-10----------13----------10-------------------12------------|  
--------------------------------------12~--(12)-| GTR II  
-------------------------------------------------|  
-------------------------------------------------|  
-------------------------------------------------|  
|                                                            |  
-------------------------------------------------|  
|----13-12-13----13-12-13----13-12-13-15-13-12---------------|  
--14-------------------------------12------------| GTR III  
|-14----------------------15----------------------12~--X----|  
-------------------------------------------------|  
-------------------------------------------------|  
                             
                              
  triplet                   *  
|--___---------------8-10-/12---|  
|-/---------10---10------------|  
|-9-9-9--7-9----9---------------| GTR II  
--------------------|  
--------------------|  
--------------------|  
|                               |  
|                           *   |  
--------------------|  
--------10-12-/13~--|  
9-----9-------------| GTR III  
|--10--9-10---12----------------|   
--------------------|  
--------------------|  
                   (End Riff B2)  
  
*The last note of B2 overlaps the 1st chord in Riff C  

Note about Riff C:
        The slides in this riff are audible and are definitely
        there.  However we are not sure if they are simply caused
        from moving from one chord to the next or if they are
        being consciencely played.  However they are there.
                   
Riff C
--------------------------------------------| 
---------------------------------3---3-5~---|  
|-/2-----------------------------------5-4-5---5--------| GTR I  
|-/2--5--2--3--------3-/5-/10-7-------------------------|   
|-/0--5--2--3--------3-/5-/10-7-------------------------|   
|-----3--0--1--------1-/3-/8--5-------------------------|  
|                                      . . .   .        |  
|                                                       |  
--------------------------------------------|  
--------------------------------------------|  
|--2-----------------------------------------4---4-5----| GTR II   
|--2--5--2-/3--------3-/5-/10-7--------7-5-7---7--------|  
|--0--5--2-/3--------3-/5-/10-7-------------------------|  
|-----3--0-/1--------1-/3-/8--5-------------------------|  
|                                                       |  
|                                                       |  
--------------------------------------------|  
---------------------------------4---4-5----| BASS  
|--0--3--------------------3--0--------7-5-7---7--------|  
|--------0--1--------1--3-------------------------------|  
                                           (End Riff C)    
  
  
Riff D  
--------------------------------|  
||---5--------3--------5-----5--------3--------5-----6--|  
||:-----------------------------------------------------|  
||:-----------------------------------------------------|  
||------0--0-----0--0-----0-----0--0-----0--0-----0-----|  
--------------------------------|  
||      .  .     .  .     .     .  .     .  .     .     |  
||                                                      |  
--------------------------------|  
--------------------------------|  
||:--5--------4--------5-----5--------4--------5-----7--|  
||:-----------------------------------------------------|  
||------0--0-----0--0-----0-----0--0-----0--0-----0-----|  
--------------------------------|  
        .  .     .  .     .     .  .     .  .     .         
                                                  
                                                  ______ 
                                                 | 2.  
------------------------------------||------|  
|-------5-------3---------------3--5--3---------||------|  
-----------5--4--5-----------5--4--:||--5~--|  
-----------------------------------:||------|    
------------------------------------||------|   
|-0--0----0--0-----0----------------------------||------|   
| .  .    .  .     .                            ||      |  
|                                               || 2.   |  
------------------------------------||------|  
------------------------------------||------|  
|-------5-------4---------------4--5--4--------:||------|  
-----------7--5--7-----------7--5--:||-/7---|    
------------------------------------||------|  
|-0--0----0--0-----0----------------------------||------|  
  .  .    .  .     .                        (End Riff D)   
                                                     
   
 This is the bass line for Riff D; On the second repeat the  
 rhythm ends differently, but the notes stay the same        
-----------------------|   
-----------------------|  
-----------------------|  
|-55555555555555551111111133333333-|  
  
  
Play Riff A twice  

Note about Riff Ex:
        1. The slides in this riff are audible and are definitely
        there.  However we are not sure if they are simply caused
        from moving from one chord to the next or if they are
        being consciencely played.  However they are there.
        2. The power chords that appear in ghost notes are audible also.
        However, it is impossible to tell whether or not these chords are
        being played or whether or not they are caused from frequency
        drop outs. Only In Flames themselves whould know!!!

Riff E1  
---------------------------------~--| 
-------------------------------5-8-|  
|-2-----------2-0-2-4-2-0--------------5-7------| GTR I  
|-2--5--2--3---------------3--5--10-7-----------|  
|-0--5--2--3---------------3--5--10-7-----------|  
|----3--0--1---------------1--3---8-5-----------|  
|             . . . . . .              . . .    |  
|                                               |  
---------------------------------~--|  
---------------------------------5-|  
|-2------------------------------------2-4-5----| GTR II  
|-2--5--2--3--3-2-3-5-3-2--3-/5--10-7-----------|  
|-0--5--2--3---------------3-/5--10-7-----------|  
|----3--0--1---------------1-/3--8--5-----------|  
|             . . . . . .              . . .    |  
|                                               |   
------------------------------------|  
------------------------------------| BASS  
|-0---------------------------------------------|  
|----3--0--1---------------1--3-/8--5-----------|  
 
 
Riff E2  
-----------------------------------~--|  
---------------------------------5-8-|  
|-2------------/2-0-2-4-2-0--------------5-7------| GTR I  
|-2---5--2--3----------------3--5-/10-7-----------|  
|-0---5--2--3----------------3--5-/10-7-----------|  
|-----3--0--1----------------1--3-/8--5-----------|  
|                                                 |  
|                                                 |  
--------------------------------------|  
-----------------------------------5-|  
|-2(2)-----------------------------------2-4-5----| GTR II  
|-2(2)-5--2--3--3-2-3-5-3-2--3--5-/10-7-----------|  
|-0(0)-5--2--3---------------3--5-/10-7-----------|  
|------3--0--1---------------1--3-/8--5-----------|  
|                                               |          
|                                               |   
------------------------------------|  
------------------------------------| BASS  
|-0---------------------------------------------|  
|----3--0--1---------------1--3-/8--5-----------|  
   
  
Riff E3  
-----------------------------------~--|  
---------------------------------5-8-|  
|-2(2)----------2-0-2-4-2-0--------------5-7------| GTR I  
|-2(2)-5--2--3---------------3--5-/10-7-----------|  
|-0(0)-5--2--3---------------3--5-/10-7-----------|  
|------3--0--1---------------1--3-/8--5-----------|  
|               . . . . . .              . . .    |  
|                                                 |  
-----------------------------------~--|  
-----------------------------------5-|  
|-2(2)-----------------------------------2-4-5----| GTR II  
|-2(2)-5--2--3--3-2-3-5-3-2--3--5-/10-7-----------|  
|-0(0)-5--2--3---------------3--5-/10-7-----------|  
|------3--0--1---------------1--3-/8--5-----------|  
|               . . . . . .              . . .    |  
|                                                 |   
------------------------------------|  
------------------------------------| BASS   
|-0---------------------------------------------|  
|----3--0--1---------------1--3-/8--5-----------|  
  
  
  
Riff E4  
-------------------------------------~--|  
-----------------------------------5-8-|  
|-2(2)-----------/2-0-2-4-2-0--------------5-7------| GTR I   
|-2(2)-5(5)-2--3---------------3--5-/10-7-----------|  
|-0(0)-5(5)-2--3---------------3--5-/10-7-----------|  
|------3(3)-0--1---------------1--3-/8--5-----------|  
|                                                   |  
|                                                   |  
------------------------------------ph~-|  
-------------------------------------5-|   
|-2(2)-------------------------------------2-4-5----| GTR II  
|-2(2)-5---2---3--3-2-3-5-3-2--3-/5-/10-7-----------|  
|-0(0)-5---2---3---------------3-/5-/10-7-----------|  
|------3---0---1---------------1-/3-/8--5-----------|  
|                                               |          
|                                               |  
------------------------------------|  
------------------------------------| BASS  
|-0---------------------------------------------|  
|----3--0--1---------------1--3-/8--5-----------|  
  
Play Riff A until fade out.  


Текст, аккорды и табулатура для песни "The Jester Race", исполняет "In Flames".
Используемые в песне аккорды можно найти в разделе Как брать аккорды. Аккорды для шестиструнной гитары. Другие песни можно найти на нашем сайте, воспользовавшись алфавитным указателем вверху страницы.


 
Ошибка в тексте? Выделите ошибку и нажмите Ctrl+Enter