BAND:In Flames
SONG:Strong and smart
ALBUM:Clayman

Drop C Tuning:

Intro (0:00)
|--------------|
|--------------|
|--------------|
|-0--1-11-3-33-|
  .

Intro (0:04)
|---------------------------------------------------------|
|---------------------------------------------------------|
|-0--0--0-0-0--3--3--3--3-3-3-3---------------------------|
|--------------------------------1--1-1-1-0--0--1-3--1-3--| x2

Verse (0:13)
|-----------------------------------------------------------------|
|-----------------------------------------------------------------|
|-------------------------------------3-3-3--3-3-3--3-3-3--3-3-3--|
|-5-5---1-1---5-5---1-1---5-5---1-1-------------------------------| x2
  . .   . .   . .   . .   . .   . .

Verse End (0:25)
|---------|
|---------|
|---------|
|-1~--3~--|

Chorus (0:27)
|--------------------------------------------------|
|--------------------------------------------------|
|-0-0-0-0-0-0-0-3--3------0-0-0-0-0-0-0-3--3-------|
|--------------------3--3--------------------3--3--| x2

Chorus End (0:36)
|----------------------------|
|----------------------------|
|----------------------------|
|-0--1-11-3-33--0----1~---3~-|
  .		.

Intro x2 (0:41)
Verse x2 (0:50)
Verse End (1:02)
Chorus x2 (1:05)
Chorus End (1:14)

Solo I (1:19)
|----------------------------------------------------------|
|----------------------------------------------------------|
|-0--0--0--0--3--3--3--3------3-33------3-33---------------|
|-------------------------111-------111--------------------| x2

Solo II (1:28)
|------------------------------------------------------------------|
|------------------------------------------------------------------|
|-0-0-0-0-0-0-0-0-3-3-3-3-3-3-3-3---------3-3-3-3---------3-3-3-3--|
|---------------------------------1-1-1-1---------1-1-1-1----------|

Solo I (Variation) (1:33)
This riff is not much different from Solo I, it's just faster.

Verse End (Variation) (1:38)
Just like above, it's not much different. Same speed, but a little different.

Chorus x4 (1:40)

(1:59)
|----------|
|--DRUMS---|
|--(REST)--|
|----------|

Intro x2 (2:01)

Ending (2:10)
|---------------------------------------------------------|
|---------------------------------------------------------|
|--------------------------------5--5-5-5-4--4--5-7--5-7--|
|-2--2--2-2-2--5--5--5--5-5-5-5---------------------------| x2

End (2:20)
|------|
|------|
|------|
|-2---|


Текст, аккорды и табулатура для песни "Strong And Smart", исполняет "In Flames".
Используемые в песне аккорды можно найти в разделе Как брать аккорды. Аккорды для шестиструнной гитары. Другие песни можно найти на нашем сайте, воспользовавшись алфавитным указателем вверху страницы.


 
Ошибка в тексте? Выделите ошибку и нажмите Ctrl+Enter