E-----------------------|
B5--6-------------------|
G|--------5------------8b---7----5--|
D||----------2-----7----------------------------|
A||--0----0--0--0-------------------------------|
E-----------------------|


                                           
------------------------------------------|
------------------5-----------------------|
--7------------------7----5--4--5--7------|
---------5--------------------------------|
------------------------------------------|
------------------------------------------|


                                              
---------------------------------------------|
----------------------5--6-------------------|
-------------------5------------8b---7----5--|
----------2-----7----------------------------|
--0----0--0--0-------------------------------|
---------------------------------------------|


                                                                     
--------------------------------------------------------|
-----------10b-10b-----10b---10--8----------------------|
--7---------------------------------10--9----7--|--9----------------|
--------------------------------------------------------|
--------------------------------------------------------|
--------------------------------------------------------|


                    
------------------||
------------------||
------------------||
------------------||
------------------||
------------------||


Текст, аккорды и табулатура для песни "Man Made God", исполняет "In Flames".
Используемые в песне аккорды можно найти в разделе Как брать аккорды. Аккорды для шестиструнной гитары. Другие песни можно найти на нашем сайте, воспользовавшись алфавитным указателем вверху страницы.


 
Ошибка в тексте? Выделите ошибку и нажмите Ctrl+Enter