#----------------------------------PLEASE NOTE---------------------------------#
#This file is the author's own work and represents their interpretation of the #
#song. You may only use this file for private study, scholarship, or research. #
#------------------------------------------------------------------------------#

		 IN FLAMES - Jotun (BASS)
                    	From the Album Whoracle

Transcribed by: Emil Bygde
	  mail: [email protected]

.  - palm mute          /  - slide up to
  - slide down to      ~  - vibrato
h  - hammer on          b  - bend
p  - pull off            Suffixes for bend
                          ph - pinch harmonic
                           f - full bend    h - half bend
*  - see comment           r - release      t - tap bend
X  - percussion mute       ~ - vibrato bend
@  - slight palm mute     () - ghost note, sustained note

This is one of the few In Flames tabs that actually is tabbed for a
5-string, this beacuse im tired to
tune down my bass, and figured i might not be the only one...



Intro/Outro (0:00)
|-------------------------------------------|
|-------------------------------------------|
|--3--3------------1-1---3--3-------1-1-1~--|
|-------4-4---1--1------------4-4-----------| x2
|-------------------------------------------|


Ending (0:13)
|--------------------------------|
|--------------------------------|
|-------------------------1------|
|--------1--4--3-----4--4--------|
|--1--4----------------------1~--|


Verse I (0:21)
|---------------------------------------|
|---------------------------------------|
|---------------------------------------|
|------------3--3-3-33--------1--4--3---| x2
|--1--1-1-11------------1--4------------|


Verse II (0:34)
|--------------------------------------------------|
|--------------------------------------------------|
|--------------------------------------------------|
|-----------------------------------------1--4--3--| x2
|-1111--------1111----11111111------1--4-----------|
  ....	      ....    ........


Verse I x2 (0:46)


Chorus (0:59)
|--------------------------------------------|
|--------------------------------------------|
|--3-3-------1-1-------------1-11------3-33--|
|------3-33------1-11--------------4-4-------| x2
|------------------------4-4-----------------|


Bridge (1:12)
|----------------------------------------------------|
|-----------1-0--------------------------------------|
|-3-3--1-3------1--3--1----3-3--1-3--------------1-1-|
|-----------------------3--------------------4-4-----| x2
|------------------------------------1-1-1-1---------|
  . .  . .		   . .  . .


(1:25)
|---------------------------------------------------|
|-1-1----1-----------------1-1----1-----------------|
|------3------------------------3-------------------|
|---------------------------------------------------| x2
|----------4-4-4-4-4-4-4-4----------4-4-4-4-4-4-4-4-|
  . .  . .		   . .  . .


(1:38)
|-----------------------------------------------------|
|------------1-0--------------------------------------|
|--3-3--1-3------1--3-1-0---3-3--1-3------------------|
|-----------------------------------------------------| x2
|-------------------------------------1-1-1-1-1-1-1-1-|
   . .  . .		    . .  . .


Verse I x2 (1:50)
Verse II x2 (2:03)
Verse I x2 (2:16)
Chorus x4 (2:29)


Interlude (2:55)
|------------------------------------------------------------------|
|------------------------------------------------------------------|
|-------------------------------------------------1-111-111-111-11-|
|---------------------------------1-111-111-111-11-----------------|
|-1-111-111-111-114-444-444-444-44---------------------------------|


|-----------------------------------------------------------|
|-----------------------------------------------------------|
|-----------------------------------------------------------|
|---------------------------------1-111-111-111-112--2~--2~-|
|-1-111-111-111-114-444-444-444-44--------------------------|


Chorus x2 (3:07)
Outro x2 (3:20)
Ending (3:33)


Текст, аккорды и табулатура для песни "Jotun", исполняет "In Flames".
Используемые в песне аккорды можно найти в разделе Как брать аккорды. Аккорды для шестиструнной гитары. Другие песни можно найти на нашем сайте, воспользовавшись алфавитным указателем вверху страницы.


 
Ошибка в тексте? Выделите ошибку и нажмите Ctrl+Enter