In Flames - Cloud Connected

Drop C tuning
There are at least 2 guitars.

| = mute strings
~ = vibrato
b = bend
r = return
h = hammer on
p = pull off
(x) = string is bent to pitch of fret x

  p.m.........      ............        
1-----------------------------------------
2-----------------------------------------
3-----------------------------------------
4-----------------------------------3p2---
5-0|-0|--0|-0|----3-0|-0|--0|-0|-------h3-
6-0|-0|--0|-0|----3-0|-0|--0|-0|----------
                 /                 
It sounds like the pitch actually drops here, but that would mean that they tune to drop 

A#, and i don't have the strings for that. Besides, other tabs online seem to be in 

agreement that the song is in C.


i'm not positive about this, but i'm pretty sure it's not a simple power chord.
                                                            
    p.m..   .   .   .   .....       ...     .   .   .   .....
1-----------------------------------------------------------------
2-----------------------------------------------------------------
3-----------------------------------------------------------------
4-------------3---2-----------3---------------3---2-----------3---
5-5-----3h5-----------3-0-0-0-3---5-----3h5-----------3-0-0-0-3---
6---0-0-----0---0---0---------------0-0-----0---0---0-------------

    p.m..   .   .   .   .....       ...     .   .   .   .....
1-----------------------------------------------------------------
2-----------------------------------------------------------------
3-----------------------------------------------------------------
4-------------3---2-----------3---------------3---2-----------3---
5-5-----3h5-----------3-0-0-0-3---5-----3h5-----------3-0-0-0-3---
6---0-0-----0---0---0---------------0-0-----0---0---0-------------

    p.m..   .   .   .   .....       ...     .   .   .   .....
1-----------------------------------------------------------------
2-----------------------------------------------------------------
3-----------------------------------------------------------------
4-------------3---2-----------3---------------3---2-----------3---
5-5-----3h5-----------3-0-0-0-3---5-----3h5-----------3-0-0-0-3---
6---0-0-----0---0---0---------------0-0-----0---0---0-------------

    p.m..   .   .   .   .....       ...     .   .   .   .....
1-----------------------------------------------------------------
2-----------------------------------------------------------------
3-----------------------------------------------------------------
4-------------3---2-----------3---------------3---2-----------3---
5-5-----3h5-----------3-0-0-0-3---5-----3h5-----------3-0-0-0-3---
6---0-0-----0---0---0---------------0-0-----0---0---0-------------


                People like you, you live in a dream world
  ............
1-----------------------------------------------------------------
2-----------------------------------------------------------------
3-----------------------------------------------------------------
4-----------------------------------------------------------------
5-0|-0|--0|-0|----------------------------------------------------
6-0|-0|--0|-0|----------------------------------------------------

You despise the outside 
and you fear the next
                      
          ___________/
         /
         one~
           p.m..   .   .   .   .....       ...     .   .   .   .....
1------------------------------------------------------------------------
2------------------------------------------------------------------------
3------------------------------------------------------------------------
4-3p2----------------3---2-----------3---------------3---2-----------3---
5-----h3-5-----3h5-----------3-0-0-0-3---5-----3h5-----------3-0-0-0-3---
6----------0-0-----0---0---0---------------0-0-----0---0---0-------------

Guitar 1 repeats the last bar while guitar 2 plays:
1-----------------------------------------------------------------
2-3-3-3-3-3-3-3-3-----------------3-3-3-3-3-3-3-3-----------------
3-2-2-2-2-2-2-2-2-5-5-5-5-5-5-5-5-2-2-2-2-2-2-2-2-2-2-2-2-2-2-2-2-
4-0-0-0-0-0-0-0-0-5-5-5-5-5-5-5-5-0-0-0-0-0-0-0-0-2-2-2-2-2-2-2-2-
5-----------------3-3-3-3-3-3-3-3-----------------0-0-0-0-0-0-0-0-
6-----------------------------------------------------------------

                It's in your dream.. there's just one question:
  p.m.........
1-----------------------------------------------------------------
2-----------------------------------------------------------------
3-----------------------------------------------------------------
4-----------------------------------------------------------------
5-0|-0|--0|-0|----------------------------------------------------
6-0|-0|--0|-0|----------------------------------------------------

Should I kill? Or should i be left
                                  
   _______________________________/
  /
  behind~                        sick and tired            of all your complaints
           p.m..   .   .   .   .....       ...     .....      
1--------------------------------------------------------------
2--------------------------------------------------------------
3------------------------------------------------------------5-
4-3p2----------------3---2-----------3-------------------3---5-
5-----h3-5-----3h5-----------3-0-0-0-3---5---------------3---3-
6----------0-0-----0---0---0-------------5-5-5-3h5-5-5-5-3-----

                          This is the hour          we bring it down
    p.m..   .   .   .   .....       ...     .....      
1----------------------------------------------------
2----------------------------------------------------
3----------------------------------------------------
4-------------3---2-----------3-------------------3|-
5-5-----3h5-----------3-0-0-0-3---5---------5-5-5-3|-
6---0-0-----0---0---0-------------5-5-5-3h5-5-5-5-3|-

                 I've come to realize~
1-----------------------------------------------------------------
2-----------------------------------------------------------------
3---------------------------------2-2-2-2-2-2-2-2-2-2-2-2-2-2-2-2-
4-3-3-3-3-3-3-3-3-3-3-3-3-3-3-3-3-2-2-2-2-2-2-2-2-2-2-2-2-2-2-2-2-
5-3-3-3-3-3-3-3-3-3-3-3-3-3-3-3-3-0-0-0-0-0-0-0-0-0-0-0-0-0-0-0-0-
6-3-3-3-3-3-3-3-3-3-3-3-3-3-3-3-3---------------------------------

         With every glimpse, you fade
1-----------------------------------------------------------------
2-----------------------------------------------------------------
3---------------------------------2-2-2-2-2-2-2-2-----------------
4-3-3-3-3-3-3-3-3-3-3-3-3-3-3-3-3-2-2-2-2-2-2-2-2-5-5-5-5-5-5-5-5-
5-3-3-3-3-3-3-3-3-3-3-3-3-3-3-3-3-0-0-0-0-0-0-0-0-5-5-5-5-5-5-5-5-
6-3-3-3-3-3-3-3-3-3-3-3-3-3-3-3-3-----------------5-5-5-5-5-5-5-5-

           I was told that i could fly~
1-----------------------------------------------------------------
2-----------------------------------------------------------------
3---------------------------------2-2-2-2-2-2-2-2-2-2-2-2-2-2-2-2-
4-3-3-3-3-3-3-3-3-3-3-3-3-3-3-3-3-2-2-2-2-2-2-2-2-2-2-2-2-2-2-2-2-
5-3-3-3-3-3-3-3-3-3-3-3-3-3-3-3-3-0-0-0-0-0-0-0-0-0-0-0-0-0-0-0-0-
6-3-3-3-3-3-3-3-3-3-3-3-3-3-3-3-3---------------------------------

           And when least expected --             cloud connected
1-----------------------------------------------------------------
2-----------------------------------------------------------------
3---------------------------------2-2-2-2-2-2-2-2-----------------
4-3-3-3-3-3-3-3-3-3-3-3-3-3-3-3-3-2-2-2-2-2-2-2-2-5-5-5-5-5-5-5-5-
5-3-3-3-3-3-3-3-3-3-3-3-3-3-3-3-3-0-0-0-0-0-0-0-0-5-5-5-5-5-5-5-5-
6-3-3-3-3-3-3-3-3-3-3-3-3-3-3-3-3-----------------5-5-5-5-5-5-5-5-
Rest for one measure, then

               You seem to be so introverted      How come we fail with all
  p.m.........                        ............     ............      /
1-------------------------------------------------------------------    | 
2-------------------------------------------------------------------    | 
3-------------------------------------------------------------------    |
4----------------------------------------------------3--------------    |
5-0|-0|--0|-0|------------------------0|-0|--0|-0|---3-0|-0|--0|-0|-    | 
6-0|-0|--0|-0|------------------------0|-0|--0|-0|-----0|-0|--0|-0|-   /
    __________________________________________________________________/             
   /          
  that is given~
           p.m..   .   .   .   .....       ...     .   .   .   .....
1------------------------------------------------------------------------
2------------------------------------------------------------------------
3------------------------------------------------------------------------
4-3p2----------------3---2-----------3---------------3---2-----------3---
5-----h3-5-----3h5-----------3-0-0-0-3---5-----3h5-----------3-0-0-0-3---
6----------0-0-----0---0---0---------------0-0-----0---0---0-------------

Guitar 1 repeats the last bar while guitar 2 plays:
1-----------------------------------------------------------------
2-3-3-3-3-3-3-3-3-----------------3-3-3-3-3-3-3-3-----------------
3-2-2-2-2-2-2-2-2-5-5-5-5-5-5-5-5-2-2-2-2-2-2-2-2-2-2-2-2-2-2-2-2-
4-0-0-0-0-0-0-0-0-5-5-5-5-5-5-5-5-0-0-0-0-0-0-0-0-2-2-2-2-2-2-2-2-
5-----------------3-3-3-3-3-3-3-3-----------------0-0-0-0-0-0-0-0-
6-----------------------------------------------------------------

              You crossed the line, you remember my name
  p.m.........                                      ............
1-----------------------------------------------------------------
2-----------------------------------------------------------------
3-----------------------------------------------------------------
4-----------------------------------------------------------------
5-0|-0|--0|-0|--------------------------------------0|-0|--0|-0|--
6-0|-0|--0|-0|--------------------------------------0|-0|--0|-0|--


(i think these lyrics are wrong; somebody email me the correct lyrics if you want me to 

change 'em.)________
                                        
Time runs backwards 'cause we're heading_
    ............                           
1---------------------------------------- | 
2---------------------------------------- | 
3---------------------------------------- |
4-3-------------------------------------- | 
5-3-0|-0|--0|-0|------------------------- | 
6---0|-0|--0|-0|------------------------- | 
                                         / 
    ____________________________________/
   / 
  that way~  
1--------------------------------------------------------
2--------------------------------------------------------
3--------3-3-3-3-3-3-3-3-3-3-3-3-3-3-3-3-----------------
4-3p2----3-3-3-3-3-3-3-3-3-3-3-3-3-3-3-3-5-5-5-5-5-5-5-5-
5-----h3-1-1-1-1-1-1-1-1-0-0-0-0-0-0-0-0-5-5-5-5-5-5-5-5-
6----------------------------------------5-5-5-5-5-5-5-5-

                 I've come to realize~
1-----------------------------------------------------------------
2-----------------------------------------------------------------
3---------------------------------2-2-2-2-2-2-2-2-2-2-2-2-2-2-2-2-
4-3-3-3-3-3-3-3-3-3-3-3-3-3-3-3-3-2-2-2-2-2-2-2-2-2-2-2-2-2-2-2-2-
5-3-3-3-3-3-3-3-3-3-3-3-3-3-3-3-3-0-0-0-0-0-0-0-0-0-0-0-0-0-0-0-0-
6-3-3-3-3-3-3-3-3-3-3-3-3-3-3-3-3---------------------------------

         With every glimpse, you fade
1-----------------------------------------------------------------
2-----------------------------------------------------------------
3---------------------------------2-2-2-2-2-2-2-2-----------------
4-3-3-3-3-3-3-3-3-3-3-3-3-3-3-3-3-2-2-2-2-2-2-2-2-5-5-5-5-5-5-5-5-
5-3-3-3-3-3-3-3-3-3-3-3-3-3-3-3-3-0-0-0-0-0-0-0-0-5-5-5-5-5-5-5-5-
6-3-3-3-3-3-3-3-3-3-3-3-3-3-3-3-3-----------------5-5-5-5-5-5-5-5-

           I was told that i could fly~
1-----------------------------------------------------------------
2-----------------------------------------------------------------
3---------------------------------2-2-2-2-2-2-2-2-2-2-2-2-2-2-2-2-
4-3-3-3-3-3-3-3-3-3-3-3-3-3-3-3-3-2-2-2-2-2-2-2-2-2-2-2-2-2-2-2-2-
5-3-3-3-3-3-3-3-3-3-3-3-3-3-3-3-3-0-0-0-0-0-0-0-0-0-0-0-0-0-0-0-0-
6-3-3-3-3-3-3-3-3-3-3-3-3-3-3-3-3---------------------------------

           And when least expected --             cloud connected
1-----------------------------------------------------------------
2-----------------------------------------------------------------
3---------------------------------2-2-2-2-2-2-2-2-----------------
4-3-3-3-3-3-3-3-3-3-3-3-3-3-3-3-3-2-2-2-2-2-2-2-2-5-5-5-5-5-5-5-5-
5-3-3-3-3-3-3-3-3-3-3-3-3-3-3-3-3-0-0-0-0-0-0-0-0-5-5-5-5-5-5-5-5-
6-3-3-3-3-3-3-3-3-3-3-3-3-3-3-3-3-----------------5-5-5-5-5-5-5-5-

                
  p.m.........       ............         ............       ............          
1-------------------------------------------------------------------------
2-------------------------------------------------------------------------
3-------------------------------------32---------------------------------
4------------------3------------------32------------------3--------------
5-0|-0|--0|-0|-----3-0|-0|--0|-0|---------0|-0|--0|-0|-----3-0|-0|--0|-0|-
6-0|-0|--0|-0|-------0|-0|--0|-0|---------0|-0|--0|-0|-------0|-0|--0|-0|-
                _The solo begins here. i'll attempt to tab it at the end.

This is played 4 times.
1||-----------------------------------------------------------------||
2||-----------------3-3-3-3-3-3-3-3---------------------------------||
3||-3-3-3-3-3-3-3-3-2-2-2-2-2-2-2-2-5-5-5-5-5-5-5-5-2-2-2-2-2-2-2-2-||
4||-3-3-3-3-3-3-3-3-0-0-0-0-0-0-0-0-5-5-5-5-5-5-5-5-2-2-2-2-2-2-2-2-||
5||-1-1-1-1-1-1-1-1-----------------3-3-3-3-3-3-3-3-0-0-0-0-0-0-0-0-||
6||-----------------------------------------------------------------||

                 I've come to realize~
1-----------------------------------------------------------------
2-----------------------------------------------------------------
3---------------------------------2-2-2-2-2-2-2-2-2-2-2-2-2-2-2-2-
4-3-3-3-3-3-3-3-3-3-3-3-3-3-3-3-3-2-2-2-2-2-2-2-2-2-2-2-2-2-2-2-2-
5-3-3-3-3-3-3-3-3-3-3-3-3-3-3-3-3-0-0-0-0-0-0-0-0-0-0-0-0-0-0-0-0-
6-3-3-3-3-3-3-3-3-3-3-3-3-3-3-3-3---------------------------------

         With every glimpse, you fade
1-----------------------------------------------------------------
2-----------------------------------------------------------------
3---------------------------------2-2-2-2-2-2-2-2-----------------
4-3-3-3-3-3-3-3-3-3-3-3-3-3-3-3-3-2-2-2-2-2-2-2-2-5-5-5-5-5-5-5-5-
5-3-3-3-3-3-3-3-3-3-3-3-3-3-3-3-3-0-0-0-0-0-0-0-0-5-5-5-5-5-5-5-5-
6-3-3-3-3-3-3-3-3-3-3-3-3-3-3-3-3-----------------5-5-5-5-5-5-5-5-

           I was told that i could fly~
1-----------------------------------------------------------------
2-----------------------------------------------------------------
3---------------------------------2-2-2-2-2-2-2-2-2-2-2-2-2-2-2-2-
4-3-3-3-3-3-3-3-3-3-3-3-3-3-3-3-3-2-2-2-2-2-2-2-2-2-2-2-2-2-2-2-2-
5-3-3-3-3-3-3-3-3-3-3-3-3-3-3-3-3-0-0-0-0-0-0-0-0-0-0-0-0-0-0-0-0-
6-3-3-3-3-3-3-3-3-3-3-3-3-3-3-3-3---------------------------------

           And when least expected --             cloud connected
1-----------------------------------------------------------------
2-----------------------------------------------------------------
3---------------------------------2-2-2-2-2-2-2-2-----------------
4-3-3-3-3-3-3-3-3-3-3-3-3-3-3-3-3-2-2-2-2-2-2-2-2-5-5-5-5-5-5-5-5-
5-3-3-3-3-3-3-3-3-3-3-3-3-3-3-3-3-0-0-0-0-0-0-0-0-5-5-5-5-5-5-5-5-
6-3-3-3-3-3-3-3-3-3-3-3-3-3-3-3-3-----------------5-5-5-5-5-5-5-5-

    p.m..   .   .   .   .....       ...     .   .   .   .....
1-----------------------------------------------------------------
2-----------------------------------------------------------------
3-----------------------------------------------------------------
4-------------3---2-----------3---------------3---2-----------3---
5-5-----3h5-----------3-0-0-0-3---5-----3h5-----------3-0-0-0-3---
6---0-0-----0---0---0---------------0-0-----0---0---0-------------

    p.m..   .   .   .   .....       ...     .   .   .   .....
1-----------------------------------------------------------------
2-----------------------------------------------------------------
3-----------------------------------------------------------------
4-------------3---2-----------3---------------3---2-----------3---
5-5-----3h5-----------3-0-0-0-3---5-----3h5-----------3-0-0-0-3---
6---0-0-----0---0---0---------------0-0-----0---0---0-------------

  ............
1-----------------------------------------------------------------
2-----------------------------------------------------------------
3-----------------------------------------------------------------
4-----------------------------------------------------------------
5-0|-0|--0|-0|----------------------------------------------------
6-0|-0|--0|-0|----------------------------------------------------
 
                        Return this bend silently.
Solo                                            
1----------------------------------------------------------
2-------------------------------------------13b15r-13b15~-
3----------------------------------------------------------
4-------------10b12-(12)-(12)-r10----10b12~----------------
5---------------------------------12-----------------------
6-/1210b12~~----------------------------------------------

1----------------------17-20-20b22~~~~~~~~-----------------
2----------------17-18-------------------------------------
3-------16-17-19-------------------------------------------
4-17-19----------------------------------------------------
5----------------------------------------------------------
6----------------------------------------------------------

1---------------------------------------------------------------------------
2---------------------------------------------------------------------------
3--------------9-10-9-h10p9----------9--------------9-10-9-h10p9-------9-10-
4-10-12~~~~-12--------------12-10-12---10-12~~~~-12--------------12-10------
5---------------------------------------------------------------------------
6---------------------------------------------------------------------------

1-------------------------------------------------------------------------------------
2----------------------------------------------------------------------------/11--10~~
3--------------9-10-9-h10p9----------9--------------9-10-9-h10p9----/12-10-9----------
4-10-12~~~~-12--------------12-10-12---10-12~~~~-12--------------12-------------------
5-------------------------------------------------------------------------------------
6-------------------------------------------------------------------------------------

-Tab by Dysthymia
http://dysthymia.cjb.net/
[email protected]


Текст, аккорды и табулатура для песни "Cloud Connected", исполняет "In Flames".
Используемые в песне аккорды можно найти в разделе Как брать аккорды. Аккорды для шестиструнной гитары. Другие песни можно найти на нашем сайте, воспользовавшись алфавитным указателем вверху страницы.


 
Ошибка в тексте? Выделите ошибку и нажмите Ctrl+Enter