Performormed by In Extremo on album "Verehrt Und Angespien"

Playing on acoustic with nylon strings.
Играется на акустике с нейлоновыми струнами.

This is the main solo riff. Second guitar play arpeggios (I haven´t tab it yet)
Это партия соло-гитары. Вторая гитара играет арпеджио (пока еще не подобрал)

Riff 1
e||-----3-------3--5------10----10--8-----8--10----------------------------------------|
B||--3------6--------------------------10--------8--8---10--8--6--8--6--5--3----3--6/8-|
G||------------------------------------------------------------------------------------|
D||-----5-----------------0------------------------------------------------------------|
A||------------------------------------------------------------------------------------|
E||------------------------------------------------------------------------------------|

e|-------------10----13--13-12-10----10------------------------------------------||
B|--6--8--10----------------------------13--10---13------------------------------||
G|----------------------------------------------------10---10h12--------10h12----|| x 2
D|-------------0-----0-------------------------------------12-----12----12-------||
A|-------------------------------------------------------------------------------||
E|-------------------------------------------------------------------------------||

Then
Затем

Riff 2
e||------10-------10--8-----8--10---12---12--10---------10-----------------------------------------|
B||--10-----------------10-----------------------13----------8--8---10--8--6--8--6--5--3----3--6/8-|
G||------------------------------------------------------------------------------------------------|
D||------0-----------------------------------------------0-----------------------------------------|
A||------------------------------------------------------------------------------------------------|
E||------------------------------------------------------------------------------------------------|

e|-------------10----13--13-12-10----10------------------------------------------||
B|--6--8--10----------------------------13--10---13------------------------------||
G|----------------------------------------------------10---10h12--------10h12----|| x 2
D|-------------0-----0-------------------------------------12-----12----12-------||
A|-------------------------------------------------------------------------------||
E|-------------------------------------------------------------------------------||

Play it like Riff 1, Riff 2, Riff 1, Riff2 and etc.
Играть Riff 1, Riff 2, Riff 1, Riff2 и т.д.

I hope you will enjoy it! Any comments and corrections are welcome!  
Я надеюсь Вам она понравится! Любые комментарии и исправления приветсвуются!


Текст, аккорды и табулатура для песни "Miss Gordon The Gight", исполняет "In Extremo".
Используемые в песне аккорды можно найти в разделе Как брать аккорды. Аккорды для шестиструнной гитары. Другие песни можно найти на нашем сайте, воспользовавшись алфавитным указателем вверху страницы.


 
Ошибка в тексте? Выделите ошибку и нажмите Ctrl+Enter