Artist: Impaled Nazarene
Title:  Nothing is sacred
Album:  Nihil

Tabbed by elc ([email protected];[email protected])

Riff 1, tremolo picking,
e|----------------------------------|
B|----------------------------------|
G|-5-5-4-5-6-6-5-5------------------|
D|-3-3-3-3-3-3-3-3-6-6-5-6-5-5-5-5--|
A|-----------------4-4-3-4-3-3-3-3--|
E|----------------------------------|

Riff 2, tremolo picking,
e|------------------------------------------------------------------|
B|------------------------------------------------------------------|
G|-----4455----4455----4455----4455----2233----2233----2233----2233-|
D|-2222----2222----2222----2222----0000----0000----0000----0000-----|
A|------------------------------------------------------------------|
E|------------------------------------------------------------------|

Riff 3, tremolo picking,
e|-------------------------------------------------|
B|-------------------------------------------------|
G|-4-4-4-4-4-4-------------------------------------|
D|-2-2-2-2-2-2-4-4-5-5-5-5-5-5---------------------|
A|-------------2-2-3-3-3-3-3-3-4-4-5-5-5-5-5-5-4-5-|
E|-----------------------------2-2-3-3-3-3-3-3-2-3-|
pm                                             . .

Riff 4, tremolo picking,
e|------------------------------------------------------------------|
B|------------------------------------------------------------------|
G|------------------------------------------------------------------|
D|-----4-4-5-5-5-5-----4-4-5-5-5-5-----7-7-8-8-8-8-----7-7-8-8-8-8--|
A|-2-2-2-2-3-3-3-3-2-2-2-2-3-3-3-3-5-5-5-5-6-6-6-6-5-5-5-5-6-6-6-6--|
E|-0-0-------------0-0-------------3-3-------------3-3--------------|

Riff 5, both normal & tremolo picking, watch for the timing at the end,
e|-----------------------------------------------------------------
B|-----------------------------------------------------------------
G|-5-5-4-5-6-6-5-5-14--------------5-5-4-5-6-6-5-5-6---------------
D|-3-3-3-3-3-3-3-3-14--------------3-3-3-3-3-3-3-3-6---------------
A|-----------------12------------------------------4---------------
E|-----------------------------------------------------------------

  -----------------------------------------------------------------
  -----------------------------------------------------------------
  -5-5-4-5-6-6-5-5-14--------------5-5-4-5-6-6-5-5-----------------
  -3-3-3-3-3-3-3-3-14--------------3-3-3-3-3-3-3-3-6-------5-------
  -----------------12------------------------------4-------3-------
  -----------------------------------------------------------------

  ------------------------------------------------------------------|
  ------------------------------------------------------------------|
  ------------------------------------------------------------------|
  ------------------------------------------------------------------|
  -3-------------------------------3---3---3-----2------------------|
  -1-------------------------------1---1---1-----0------------------|


Текст, аккорды и табулатура для песни "Nothing Is Sacred", исполняет "Impaled Nazarene".
Используемые в песне аккорды можно найти в разделе Как брать аккорды. Аккорды для шестиструнной гитары. Другие песни можно найти на нашем сайте, воспользовавшись алфавитным указателем вверху страницы.


Слушать онлайн Nothing Is Sacred


Impaled NazareneNothing Is Sacred на Яндекс.Музыке


 
Ошибка в тексте? Выделите ошибку и нажмите Ctrl+Enter