Immortal
Withstand the fall of time
Album at the heart of winter

Well i think this tab is pretty perfect, except maybe the 2 missing riff at the end of the songs
if you konw those riff mail them to me [email protected]

Transcribed by Magister
E tuning

 Riff 1                                                           
|---------------------------------------------------------------------------|
|---------------------------------------------------------------------------|
|---------------------------------------------------------------------------|
|-222222225555555544444444h55p44p222222220022222222555555554444444477440000-|
|-2----------------------------------------2--------------------------------|
|-0----------------------------------------0--------------------------------|

 Riff 2                   1-3rd time  2 time              4 time
|-----------------------|----------|-------------------|----------|
|-----------------------|----------|-------------------|----------|
|-----------------------|----------|-------------------|----------|
|-2-----2-----2-----2---|-33333333-|-3-----3-----3/2---|-22220000-|
|-2-----2-----2-----2---|----------|---5-5---5-5-------|----------|
|-0-0-0-0-0-0-0-0-0-0-0-|----------|-------------------|----------|
     . .   . .   . .   .                . .   . .
 
 Riff 1
 Riff 2

Dive gradually with tremolo bar
|----'------------------------------------|
|----------'------------------------------|
|----------------'------------------------|
|-2--------------------'------------------|
|-2--------------------------'------------|
|-0--------------------------------'------|


Riff 3
|----------------------------------------
|------------------------------------A.H-
|-4-44-4-4-------------------------------
|-2-22-2-2-7-77-7-7-5-55-5-5-7-77-7-7-7--
|-2-22-2-2-5-55-5-5-3-33-3-3-5-55-5-5----
|-0-00-0-0-------------------5-55-5-5----

--------------------------------------|
--------------------------------------|
-4-44-4-4-----------------------------|
-2-22-2-2-7-77-7-7-5-55-5-5-7-----9-5-|
-2-22-2-2-5-55-5-5-3-33-3-3-5-555-7-3-|
-0-00-0-0-------------------5-555-7-3-|

Verse Riff 
|---------------------------|
|---------------------------|
|---------------------------|
|-2-999-777-10-22-777-999-5-|
|-2-777-555--8-22-555-777-3-|
|-0------------00-----------|
  .            ..

Riff 3
Verse Riff 
Riff 3

Riff 4
|----------------------------------------------------------|
|----------------------------------------------------------|
|----------------------------------------------------------|
|-9----------7------10-------9----------7------------------|
|-7----------5-------8-------7----------5-------8----8---8-|
|----00000000---0000----0000----00000000---0000---00---00--|
     ........   ....    ....    ........   ....   ..   ..

Riff 5              1 and 3rd time  2time      4 time
|------------------|-------------|---------|-------------|
|------------------|-------------|---------|-------------|
|------------------|-------------|---------|-------------|
|-9-9--11--12--9-9-|-------------|-7-7-7-7-|----10-9-7-4-|
|-7-7---9--10--7-7-|-------------|-5-5-5-5-|-----8-7-5-2-|
|------------------|-5-3-2-5-3-2-|---------|-000---------|
                     . . . . . .             ...
riff 4
Riff 5

Riff 6                                                           4x
|----------------------------------------------------------------------|
|----------------------------------------------------------------------|
|----------------------------------------------------------------------|
|-9-9-9-9-10-9-7--9-9-9-9-10-7--10-10-10-10-12-10-9--10-10-10-10-12-9--|
|-7-7-7-7--7-7-7--7-7-7-7-7--7--12-12-12-12-12-12-12-12-12-12-12-12-12-|
|----------------------------------------------------------------------|

 Riff 7
|----------------------------------------------
|----------------------------------------------
|----------------------------------------------
|----------------------------------------------
|---10-10-10---10---10-9---10-10-10---10---9---
|-0----------0----0------0----------0----0-----

----------------------------------------------------------|
----------------------------------------------------------|
----------------------------------------------------------|
----------------------------------------------------------|
----12-12-12---12---12-10--12-12-12---12-13-12-10-12-10-9-|
--0----------0----0------0----------0---------------------|


Riff 3B
|-------------------------------------------------------------------|
|--------------------------A.H--------------------------------------|
|-4--------------------------------4--------------------------------|
|-2-------7-------5-------7-7------2-------7-------5-------7-9-5----|
|-2-------5-------3-------5--------2-------5-------3-------5-7-3----|
|-0-----------------------5--------0-----------------------5-7-3----|

Riff 3
Verse Riff
Riff 3
Verse Riff

Riff 8
|----------------------------------------------------------------------|
|---------------------5--------------------------------5------3--------|
|-------------------7---7-----------------------------7-7------5-------|
|--9-----9--9--7--7-------7-5--5---2-----9---9----7--7---7-5----5---2--|
|--7-----7--7--5-5----------3--3---2-----7---7----5-5------3-----3--2--|
|---0000--00-00--------------------0-000---00--00-------------------0--|

Riff 9 ? (5:20)
Riff 8
Riff 9 ?
Riff 10 ? (6:15)

Riff 4 
Riff 5
Riff 4 
Riff 5
Riff 6 Fade out

There are 2 missing riff if you know them send them to me
[email protected]


Текст, аккорды и табулатура для песни "Withstand The Fall Of Time", исполняет "Immortal".
Используемые в песне аккорды можно найти в разделе Как брать аккорды. Аккорды для шестиструнной гитары. Другие песни можно найти на нашем сайте, воспользовавшись алфавитным указателем вверху страницы.


 
Ошибка в тексте? Выделите ошибку и нажмите Ctrl+Enter