Ill Niсо : With You : Tuning (E,A,D,G,B,E)

Intro: G1..G2 Cminor
e|--------------------------------------------|
B|--------------------------------------6-----|
G|---5-7-8-7-5-5-5-5----5-7-87-5-7-8-8---87-|
D|-5------------------5-----------------------|
A|--------------------------------------------|
E|--------------------------------------------|

Verse 1: G1-2 Cminor

G1 Thousand years So just cry your fears.Yeah
e|------------------------------------6-6/8-|
B|-8/9-8b-------------------6-9-8-8-9-------|
G|----------5-87-5-7-87-8-----------------|
G2 A#major

Verse 2: G1
e|-108-6-8-10-11-10-|
G2 Cminor

G1 
B|-------6----------6----------6------------------------|
G|-7/8-8---7--7/8-8---7--7/8-8---7--7-7-8-5-7---5-------|
D|--------------------------------------------8---6-8-5-|
G2 A#major
 
Bridge 1:
G1-G2 Cminor...I wish,I was with you

Chorus:
G1-G2 D#maj..Dmin..A#maj..Cmin...x2

G1
e|-----------------------------------6-6-8-6---------|
B|-----------6----------------6--------------9-8-6-8-|
G|-8-7-5-7-8---8-7--8-7-5-7-8---8-7------------------|
G2 D#maj..Dmin

G1
G|-1p0---0-1-3--1-0---0-------------|
D|-----3------------3---3-1-0---1-1-|
A|----------------------------3-----|
G2..A#maj..Cmin..Is everything

G1 
G|-1p0---0-1-1-1-1-3-0-|
D|-----3---------------|
G2..D#maj..Dmin..A#maj..Cmin

Bridge 2: G1 
B|-------------------------6---------------------------6---|
G|-5--8p7-5-7--5-8p7-5-7-8---5--8p7-5-7-5--8p7-5-7-8-8---7-|
G2..Cminor                               

Verse 2: G1
e|-----6-6-6-6/8-8--15-15-1513--11108-10-11-10-----------------------------------|
B|-8-9------------------------------------------------------------8/9-6-8---6-------|
G|-------------------------------------------------5-5-7-8-5-7-8----------8---7-8-5-|
G2..Cminor..A#major

G1 
e|---------------------------6-------------------------------|
B|----------8-8-8/9-8--8-8-9---9-8/9-6/8---6-----6/8-8-8-9-8-|
G|-3-3/5-5-------------------------------8---7/8-------------|
G2 Cminor..A#major
 
Bridge 3: G1
G|-3-3-3-3/5-5--3/5-5-5-5--0-3-5-3-5--3/5-5-5-5------------|
D|-----------------------------------------------3-1-0-----|
A|-----------------------------------------------------3-3-|
G2 Cminor                                          
  
Repeat Chorus 

G1 
B|-8-8-8-9-8b-|
G2.D#maj..Dmin..A#maj..Cmin
  
G1 
B|-----------------------------------6---6--8-8-8-9-6-8---6----------|
G|-5-5-5-7-8--7-7-7-8-8-8-7-5-7--7-8---8----------------8----7-8-5-7-|
G2..D#maj..Dmin..A#maj..Cmin
   
G1
e|-----------6---------------------------------|
B|-9-8-6-8-9---9-8--9-8-6-8---6----------------|
G|--------------------------8---7-8--7-7-7-8-7-|
G2..D#maj..Dmin..A#maj..Cmin

Solo: G1
G|-5-8-7-5-7-5-------------------------5----------------------------------|
D|-------------8-6-5-6-5---5-6-8-8-8-8---8-6-5---5-6-8--------5-----------|
A|-----------------------8---------------------8--------6-6-8---8-6-6-6-6-|

e|-------------------6-------------------------------------------------------6-8-6-----------|
B|-------------6h8h9---9-8-6-8-6-----------------------------6-6-6-8-8-8-9-8-------9-8-6-----|
G|-------5h7h8-------------------8-7-8p7-5-7p5---5-7-8-5-7-8-----------------------------8-7-|
D|-5h6h8---------------------------------------8---------------------------------------------|

B|-9p8p6-9p8p6-9p8p6-9p8p6--11p9p8-11p9p8-11p9p8-11p9p8--8-9-8-6-8-6---6-------------------|
G|-------------------------------------------------------------------8---8-5-7---5-5-5-5-5-|
D|-----------------------------------------------------------------------------8-----------|
G2..Cminor

End
Tabed by Nur-Karim


Текст, аккорды и табулатура для песни "With You", исполняет "Ill Nino".
Используемые в песне аккорды можно найти в разделе Как брать аккорды. Аккорды для шестиструнной гитары. Другие песни можно найти на нашем сайте, воспользовавшись алфавитным указателем вверху страницы.


 
Ошибка в тексте? Выделите ошибку и нажмите Ctrl+Enter