Ill Nino - What Comes Around(Spanish Version)
Submitted By: Derek Donaldson
EMail: [email protected]


Intro (Guitar enters between 0:08 and 0:09)
|------------------------------------------------|
|------------------------------------------------|
|-------------------------------5-5-5-5-5-5-5-5--|
|--1p0-0-0--3p1-1-1p0--1p0-0-0--5-5-5-5-5-5-5-5--|
|--1p0-0-0--3p1-1-1p0--1p0-0-0--3-3-3-3-3-3-3-3--|
|--1p0-0-0--3p1-1-1p0--1p0-0-0-------------------|

Verse (w/ delay)
|--------------------------13-13-13-12-12-12-15-15--|
|--15-15-15-15-15-15-15-15--------------------------|
|---------------------------------------------------|
|---------------------------------------------------|
|---------------------------------------------------|
|---------------------------------------------------|

Pre-Chorus

|---------------------------------------------------
|---------------------------------------------------
|---------------------------------------------------
|--12-12-12-12-12-12-12-12-12-12-12-12-12-12-12-12--
|--12-12-12-12-12-12-12-12-12-12-12-12-12-12-12-12--
|--12-12-12-12-12-12-12-12-12-12-12-12-12-12-12-12--
    .  .  .  .  .  .  .  .  .  .  .  .  .  .  .  .

-----------------------------------------|
-----------------------------------------|
-----------------------------------------|
--12-12-8-8-8-8-8-8-10-10-10-10-3-3-3-3--|
--12-12-8-8-8-8-8-8-10-10-10-10-3-3-3-3--|
--12-12-8-8-8-8-8-8-10-10-10-10-3-3-3-3--|
   .  . . . . . . .  .  .  .  . . . . .

Pre Chorus/Last Time

|-------------------------------------------------------|
|-------------------------------------------------------|
|-------------------------------------------------------|
|--12-12-12-12-12-12-12-12-12-12-12-12-12-12-12-12--10--|
|--12-12-12-12-12-12-12-12-12-12-12-12-12-12-12-12---8--|
|--12-12-12-12-12-12-12-12-12-12-12-12-12-12-12-12---8--|
    .  .  .  .  .  .  .  .  .  .  .  .  .  .  .  .
   
Note: The rhythm of this section is a little hard to figure it out,
      but, I've subdivided it for you. Just subdivide in 16th notes
      and you'll nail it. Chorus (Gtr. 1/Distorted)
|--------------------------------------
|--------------------------------------
|--------------------------------------
|--5-5-5-5--5-5-5-5--5-5-5-5--5-5-5-5--
|--5-5-5-5--5-5-5-5--5-5-5-5--5-5-5-5--
|--5-5-5-5--5-5-5-5--5-5-5-5--5-5-5-5--


------------------------------------------------------|
------------------------------------------------------|
------------------------------------------------------|
--10-10-10-10--10-10-10-10--10-10-10-10--10-10-10-10--|
---8--8--8--8---8--8--8--8---8--8--8--8---8--8--8--8--|
---8--8--8--8---8--8--8--8---8--8--8--8---8--8--8--8--|

Note: On the last time the chorus is played, the second chord (a 
      Dbsus2 in standard tuning), is played as a quarter note
      triplet, just like Gtr. 2 does on all the chorus measures.

Chorus (Gtr. 2/Clean)

|------------------------------------------------|
|--------10---------------------10---------------|
|------7--------10-10-10------7--------10-10-10--|
|--(0)----------10-10-10--(0)----------10-10-10--|
|----------------8--8--8----------------8--8--8--|
|----------------8--8--8----------------8--8--8--|

Post Chorus: This is the same as the intro riff. 

Bridge (Gtr. 1)
|----------------------------------------
|-------6------8-----6------8------------
|-------7------7-----7------7------------
|-----7------7-----7------7--------------
|--5------5-----5------5-----------------
|----------------------------------------

--------------------5------6------------------5--|
------6------8------6------6------6-----8-----6--|
------7------7--------------------7-----7--------|
----7------7------7------7------7-----7-----7----|
--5------5------5------5------5-----5-----5------|
-------------------------------------------------|

Bridge (Gtr. 2)
|-------------|
|--6-6-6-6-6--|
|--7-7-7-7-7--|
|--7-7-7-7-7--|
|--5-5-5-5-5--|
|-------------|

Note: This part is loosely strummed. Gtr. 2 enters with the percussion
      and plays all the way to the break, where there is just vocals.
      You can toss in the variations that Gtr. 1 is playing if you
      want to add some flavor. 

Outro:

|------------------------|
|------------------------|
|------------------------|
|--1p0-0-0-0--3p1-1-0-0--|
|--1p0-0-0-0--3p1-1-0-0--|
|--1p0-0-0-0--3p1-1-0-0--|

End Notes: This song actually seems harder than it sounds, but its 
           still not very difficult. I am sure that this is 100% 
           correct, except maybe the bridge, which if its not perfect,
           its really close (and with two guitars, you can make it
           sound however you want). Enjoy.


Текст, аккорды и табулатура для песни "What Comes Around", исполняет "Ill Nino".
Используемые в песне аккорды можно найти в разделе Как брать аккорды. Аккорды для шестиструнной гитары. Другие песни можно найти на нашем сайте, воспользовавшись алфавитным указателем вверху страницы.


 
Ошибка в тексте? Выделите ошибку и нажмите Ctrl+Enter