Ill Niсо : What Comes Around : Tuning (C-G-C-F-A-D)

Intro: 0:08 
D|------------------------------------|
A|------------------------------------|
F|---------------------------55555555-|
C|-1p0-00--3p1-1-1p0--1p000--55555555-|
G|-1p0-00--3p1-1-1p0--1p000--33333333-|
C|-1p0-00--3p1-1-1p0--1p000-----------|

Verse: W/delay
D|-------------------------13-13-13-12-12-12-15-15-|
A|-15-15-15-15-15-15-15-15-------------------------|

Pre-Chorus:
C|-12-12-12-12-12-12-12-12-12-12-12-12-12-12-12-12-|
G|-12-12-12-12-12-12-12-12-12-12-12-12-12-12-12-12-|
C|-12-12-12-12-12-12-12-12-12-12-12-12-12-12-12-12-|
  
C|-12-12-888888-10-10-10-10-3333-|
G|-12-12-888888-10-10-10-10-3333-|
C|-12-12-888888-10-10-10-10-3333-|
 
C|-12-12-12-12-12-12-12-12-12-12-12-12-12-12-12-12--10-|
G|-12-12-12-12-12-12-12-12-12-12-12-12-12-12-12-12---8-|
C|-12-12-12-12-12-12-12-12-12-12-12-12-12-12-12-12---8-|
    
Chorus: G1
C|-5-5-5-5-|
G|-5-5-5-5-|x4
C|-5-5-5-5-|

C|-10-10-10-10-|
G|--8--8--8--8-|x4
C|--8--8--8--8-|

Chorus: G2 Clean
A|-----10----------------10-----------|
F|---7-----10-10-10----7-----10-10-10-|
C|-0-------10-10-10--0-------10-10-10-|
G|----------8--8--8-----------8--8--8-|
C|----------8--8--8-----------8--8--8-|

Post Chorus is same as intro riff. 

Bridge: G1
A|------6-----8-----6-----8-|
F|------7-----7-----7-----7-|
C|----7-----7-----7-----7---|
G|-5------5-----5-----5-----|

D|-----------------5-----6-----------------5-|
A|-----6-----8-----6-----6-----6-----8-----6-|
F|-----7-----7-----------------7-----7-------|
C|---7-----7-----7-----7-----7-----7-----7---|
G|-5-----5-----5-----5-----5-----5-----5-----|

Bridge: G2
A|-6-6-6-6-6-|
F|-7-7-7-7-7-|
C|-7-7-7-7-7-|
G|-5-5-5-5-5-|

Outro:
C|-1p0000--3p1-1-00-|
G|-1p0000--3p1-1-00-|
C|-1p0000--3p1-1-00-|

End
Tabed by Nur-Karim


Текст, аккорды и табулатура для песни "What Comes Around", исполняет "Ill Nino".
Используемые в песне аккорды можно найти в разделе Как брать аккорды. Аккорды для шестиструнной гитары. Другие песни можно найти на нашем сайте, воспользовавшись алфавитным указателем вверху страницы.


 
Ошибка в тексте? Выделите ошибку и нажмите Ctrl+Enter