ill nino tab

    by: patrik тцrmдnеn
   Email: [email protected]
   from:sweden

       band:ill nino
       song:what comes around
-----------------------------------------------------------

    tuning: drop D and down 1 and 1/2 step  (b F# B E G# C#)
----------------------------------------------------------

 samplin and stuff  ...i hate you... i hate you...

Riff 1 
----------------------------------------------------------
----------------------------------------------------------
----------------------------------------------------------2x
----------------------------------------------------------
-1h0-0-0--0-3h1--1-1-1-- --1h0-0-0-0-0---5-5-5-5-5-5------
-1h0-0-0--0-3h1--1-1-1-- --1h0-0-0-0-0---5-5-5-5-5-5------
    pm.....      .....       .........  

vers...you think........

the riff after ---i love you i hate you i miss you..... 

----------------------------------------------------------
----------------------------------------------------------
----------------------------------------------------------
----------------------------------------------------------3x
----------------------------------------------------------
--11-11-11-11-11-11-11-11-11--7-7-7-7--9--6-6-6-6-6-6-----

ref...i have nothing......        And the oder guitar ( i think so )

--------- ---------- -------- --------    ------------------  
--------- ---------- -------- --------    ------------------  
--------- ---------- -------- --------    ------14------15-  
-7--10--- --7--10--- -7--10-- -7--10--    ----14-------15---  
-7--10--- --7--10--- -7--10-- -7--10--    --13-------16-----  
-7--10--- --7--10--- -7--10-- -7--10--    ------------------  

riff 1 again     go to the top ! ..riff 1

and then the vers again..and the riff after the vers. you know --11-11-11-11-11-7-7-7-9-6-6

and the ref..two times..

now the acoustic  part....i donґt know but i play like this ..on electric guitar..

-----------------------------------------------------------
-----------------------------------------------------------
---------9-----------10------------------------------------
----7----9--------7--10------------------------------------
--5-------------4------------------------------------------
-----------------------------------------------------------

and then the ref but you start like this

------ ---------- ------- 
------ ---------- ------- 
------ ---------- ------- 
------ ---------- ------- 6x
-11--- --7---11-- -7--11- 
-11--- --7---11-- -7--11-  
 and the end 

----------------------------------------------------------
----------------------------------------------------------
----------------------------------------------------------
----------------------------------------------------------
-1h0-0-0-0--0-3h1-1-1-1-----------------------------------
-1h0-0-0-0--0-3h1-1-1-1-----------------------------------

bye !!! ...ill rules


Текст, аккорды и табулатура для песни "What Comes Around", исполняет "Ill Nino".
Используемые в песне аккорды можно найти в разделе Как брать аккорды. Аккорды для шестиструнной гитары. Другие песни можно найти на нашем сайте, воспользовавшись алфавитным указателем вверху страницы.


 
Ошибка в тексте? Выделите ошибку и нажмите Ctrl+Enter