Ill Nino - This Time's For Real
TUNED: drop C   (C,G,C,F,A,D)
By: Negative12Dead
* = Play alot fast (only in solo)
----------------------------
-Intro-
Keyboard: Hold: G...F and play the G-G-G-G-G and F-F-F-F-F-F too
 
Guitar 1 or 2:
|-------------------------------------------------------------------------
|---10---10---10---10---10------8----8----8----8--------------------------
|-------------------------------------------------------------------------
|-7----7----7----7----7--------5----5----5----5---------------------------
| ------------------------------------------------------------------------
|-------------------------------------------------------------------------



-After Intro-
Guitar 1
D|-----------------------------------
A|-----------------------------------
F|-----------------------------------
C|-7-7-7---10---3-3-3--3h5p3---------
G|-7-7-7---10---3-3-3--3h5p3---------
C|-7-7-7---10---3-3-3--3h5p3---------(x3) 

Then after the 3rd time play this:
D|---------------------------------------
A|---------------------------------------
F|---------------------------------------
C|-5~------------------------------------
G|-5~------------------------------------
C|-5~------------------------------------


Guitar 2
D|-19-19-19--------------20-20-20--------------20-20-20--------------
A|--------------17-17-17--------------17-17-17--------------17-17-17-
F|-------------------------------------------------------------------
C|-------------------------------------------------------------------
G|-------------------------------------------------------------------
C|-------------------------------------------------------------------(x3)

D|-20--19-------
A|--------------
F|----------19~-
C|--------------
G|--------------
C|--------------
 


-Verse-
Guitar 1
D|-----------------------------------
A|-----------------------------------
F|-----------------------------------
C|-7-7-7---10---3-3-3--3h5p3---------
G|-7-7-7---10---3-3-3--3h5p3---------
C|-7-7-7---10---3-3-3--3h5p3---------(x3) 

Then after the 3rd time play this:
D|------------------------------------------
A|------------------------------------------
F|------------------------------------------
C|-5~-5h7-----------------------------------
G|-5~-5h7-----------------------------------
C|-5~-5h7-----------------------------------

Play it again but on the 3rd time play:
D|-----------------------------------------
A|-----------------------------------------
F|-----------------------------------------
C|-5~-----8~-------------------------------
G|-5~-----8~-------------------------------
C|-5~-----8~-------------------------------



-Chorus-
Guitar 1
D|------------------
A|------------------
F|------------------
C|-0----3----5----3-
G|-0----3----5----3-
C|-0----3----5----3-(x2)


Guitar 2
D|-17~----------------------------------------------------------------
A|-15~------17----17------15----15------17----17-------15----15-------
F|-14~----------------------------------------------------------------
C|--------------------------------------------------------------------
G|--------------------------------------------------------------------
C|--------------------------------------------------------------------

D|------------------------------------------
A|-----17----17------15----15------17~------
F|---------------------------------14~------
C|------------------------------------------
G|------------------------------------------
C|------------------------------------------



-After Chorus Riff-
Guitar 1
D|-----------------------------------
A|-----------------------------------
F|-----------------------------------
C|-7-7-7---10---3-3-3--3h5p3---------
G|-7-7-7---10---3-3-3--3h5p3---------
C|-7-7-7---10---3-3-3--3h5p3---------(x2)


Guitar 2
D|-19-19-19--------------20-20-20--------------20-20-20------------
A|------------17-17-17--------------17-17-17--------------17-17-17-
F|-----------------------------------------------------------------
C|-----------------------------------------------------------------
G|-----------------------------------------------------------------
C|-----------------------------------------------------------------(x2)



-Verse-
Guitar 1
D|-----------------------------------
A|-----------------------------------
F|-----------------------------------
C|-7-7-7---10---3-3-3--3h5p3---------
G|-7-7-7---10---3-3-3--3h5p3---------
C|-7-7-7---10---3-3-3--3h5p3---------(x3) 

Then after the 3rd time play this:
D|------------------------------------------
A|------------------------------------------
F|------------------------------------------
C|-5~-5h7-----------------------------------
G|-5~-5h7-----------------------------------
C|-5~-5h7-----------------------------------

Play it again but on the 3rd time play:
D|-----------------------------------------
A|-----------------------------------------
F|-----------------------------------------
C|-5~-----8~-------------------------------
G|-5~-----8~-------------------------------
C|-5~-----8~-------------------------------



-Chorus-
Guitar 1
D|------------------
A|------------------
F|------------------
C|-0----3----5----3-
G|-0----3----5----3-
C|-0----3----5----3-(x2)


Guitar 2
D|-17~----------------------------------------------------------------
A|-15~------17----17------15----15------17----17-------15----15-------
F|-14~----------------------------------------------------------------
C|--------------------------------------------------------------------
G|--------------------------------------------------------------------
C|--------------------------------------------------------------------

D|------------------------------------------
A|-----17----17------15----15------17~------
F|---------------------------------14~------
C|------------------------------------------
G|------------------------------------------
C|------------------------------------------

-Bridge Solo-
D|------5h7-7h8p7p5---------5h7-7h8-8p7-7p5----------------
A|-5-5-----------------5-5---------------------------------
F|----------------------------------------------------------
C|----------------------------------------------------------
G|----------------------------------------------------------
C|----------------------------------------------------------(x2)

D|-8-8-8-8-5-5--7h8p7----5--7h8p7----5*-8*--7h8p7-
A|--------------------8------------8--------------
F|------------------------------------------------
C|------------------------------------------------
G|------------------------------------------------
C|------------------------------------------------

D|---5--7h8p7----5-8h10p8-7h8p7h8p7p5-
A|-8-----------8----------------------
F|------------------------------------
C|------------------------------------
G|------------------------------------
C|------------------------------------

D|--------------------------------------------
A|-13-13-13-13-12-12-13--13-13-13-13-12-13-10-
F|-14-14-14-14-12-12-14--14-14-14-14-12-14-10-
C|--------------------------------------------
G|--------------------------------------------
C|--------------------------------------------

D|---------------------------------------------------------
A|---------------------------------------------13-15-17-17-
F|---------------------------------------------14-16-17-17-
C|----12h14p12------12--12h14p12----12---------------------
G|-15------------15--------------------15------------------
C|---------------------------------------------------------



-Chorus-
Guitar 1
D|------------------
A|------------------
F|------------------
C|-0----3----5----3-
G|-0----3----5----3-
C|-0----3----5----3-(x3)


Guitar 2
D|-17~-----------------------------------------------------------
A|-15~------17----17------15----15------17----17-------15----15--
F|-14~-----------------------------------------------------------
C|---------------------------------------------------------------
G|---------------------------------------------------------------
C|---------------------------------------------------------------

D|---------------------------------------------------------------------
A|17----17------15----15------17----17-------15----15------17----17----
F|---------------------------------------------------------------------
C|---------------------------------------------------------------------
G|---------------------------------------------------------------------
C|---------------------------------------------------------------------

D|---------------------------------------------
A|15----15------15----17--------15~------------
F|-----------------14----14(x6)-14~------------
C|---------------------------------------------
G|---------------------------------------------
C|---------------------------------------------

If you found something to correct contact me at [email protected] Thanks!!
Enjoy!! ^-^  By the way, the solo might be a tad off, but i did my best. PEACE!


Текст, аккорды и табулатура для песни "This Times For Real", исполняет "Ill Nino".
Используемые в песне аккорды можно найти в разделе Как брать аккорды. Аккорды для шестиструнной гитары. Другие песни можно найти на нашем сайте, воспользовавшись алфавитным указателем вверху страницы.


 
Ошибка в тексте? Выделите ошибку и нажмите Ctrl+Enter