Ill Niсo - How Can I Live

TUNED: drop C   (C,G,C,F,A,D)
Tabbed by: Negative12Dead
----------------------------
Intro:

GUITAR 1
D|------------------------|
A|------------------------|
F|------------------------|
C|-3-2-0-2-3-2--2-2-2-3-2-|
G|-3-2-0-2-3-2--2-2-2-3-2-|
C|-3-2-0-2-3-2--2-2-2-3-2-|  3x

D|----------------------|
A|----------------------|
F|----------------------|
C|-3-2-0-2-3-2--2-2-2-2-|
G|-3-2-0-2-3-2--2-2-2-2-|
C|-3-2-0-2-3-2--2-2-2-2-|

D|------------------------|
A|------------------------|
F|------------------------|
C|-3-2-0-2-2--2-3-2-0-2-2-|
G|-3-2-0-2-2--2-3-2-0-2-2-|
C|-3-2-0-2-2--2-3-2-0-2-2-|

D|----------------------|
A|----------------------|
F|----------------------|
C|-3-2-0-2-2--2-3-2-0-2-|
G|-3-2-0-2-2--2-3-2-0-2-|
C|-3-2-0-2-2--2-3-2-0-2-|

D|------------------------|
A|------------------------|
F|------------------------|
C|-3-2-0-2-2--2-3-2-0-2-2-|
G|-3-2-0-2-2--2-3-2-0-2-2-|
C|-3-2-0-2-2--2-3-2-0-2-2-|

D|--------------------|
A|--------------------|
F|--------------------|
C|-3-2-0-2-2--2-3-2-0-|
G|-3-2-0-2-2--2-3-2-0-|
C|-3-2-0-2-2--2-3-2-0-|


GUITAR 2
D|------------------------------------------------|
A|------------------------------------------------|
F|-9----------------------------------------------|
C|-9----------------------------------------------|
G|-7----------------------------------------------|
C|------------------------------------------------|  2x

D|-15-14--14-12-----------------------------------|
A|------------------------------------------------|
F|------------------------------------------------|
C|------------------------------------------------|
G|------------------------------------------------|
C|------------------------------------------------|  2x


----------------------------
Verse:

GUITAR 1
D|-----------------|
A|-----------------|
F|-----------------|
C|-0---7---3---5---|
G|-0---7---3---5---|
C|-0---7---3---5---|  4x

D|------------------------|
A|------------------------|
F|------------------------|
C|-3-2-0-2-2--2-3-2-0-2-2-|
G|-3-2-0-2-2--2-3-2-0-2-2-|
C|-3-2-0-2-2--2-3-2-0-2-2-|

D|----------------------|
A|----------------------|
F|----------------------|
C|-3-2-0-2-2--2-3-2-0-2-|
G|-3-2-0-2-2--2-3-2-0-2-|
C|-3-2-0-2-2--2-3-2-0-2-|

D|------------------------|
A|------------------------|
F|------------------------|
C|-3-2-0-2-2--2-3-2-0-2-2-|
G|-3-2-0-2-2--2-3-2-0-2-2-|
C|-3-2-0-2-2--2-3-2-0-2-2-|

D|--------------------|
A|--------------------|
F|--------------------|
C|-3-2-0-2-2--2-3-2-0-|
G|-3-2-0-2-2--2-3-2-0-|
C|-3-2-0-2-2--2-3-2-0-|


GUITAR 2
D|-----------------------|
A|-----------------------|
F|-2-0-2-0---2-0-2-3-2-0-|
C|-----------------------|
G|-----------------------|
C|-----------------------|  4x

D|------------------------|
A|------------------------|
F|------------------------|
C|-3-2-0-2-2--2-3-2-0-2-2-|
G|-3-2-0-2-2--2-3-2-0-2-2-|
C|-3-2-0-2-2--2-3-2-0-2-2-|

D|----------------------|
A|----------------------|
F|----------------------|
C|-3-2-0-2-2--2-3-2-0-2-|
G|-3-2-0-2-2--2-3-2-0-2-|
C|-3-2-0-2-2--2-3-2-0-2-|

D|------------------------|
A|------------------------|
F|------------------------|
C|-3-2-0-2-2--2-3-2-0-2-2-|
G|-3-2-0-2-2--2-3-2-0-2-2-|
C|-3-2-0-2-2--2-3-2-0-2-2-|

D|--------------------|
A|--------------------|
F|--------------------|
C|-3-2-0-2-2--2-3-2-0-|
G|-3-2-0-2-2--2-3-2-0-|
C|-3-2-0-2-2--2-3-2-0-|


----------------------------
Chorus:

GUITAR 1
D|---------------------------------------------------|
A|---------------------------------------------------|
F|-9-----------12------------------------------------|
C|-9-----------12-----------10-----------7-----------|
G|-7-----------10-----------10-----------7-----------|
C|--------------------------10-----------7-----------|

D|--------------------------------------------------|
A|--------------------------------------------------|
F|--------------------------------------------------|
C|-2-----------5-----------10-----------7-----------|
G|-2-----------5-----------10-----------7-----------|
C|-2-----------5-----------10-----------7-----------|

D|------------------------|
A|------------------------|
F|------------------------|
C|-3-2-0-2-2--2-3-2-0-2-2-|
G|-3-2-0-2-2--2-3-2-0-2-2-|
C|-3-2-0-2-2--2-3-2-0-2-2-|

D|----------------------|
A|----------------------|
F|----------------------|
C|-3-2-0-2-2--2-3-2-0-2-|
G|-3-2-0-2-2--2-3-2-0-2-|
C|-3-2-0-2-2--2-3-2-0-2-|

D|------------------------|
A|------------------------|
F|------------------------|
C|-3-2-0-2-2--2-3-2-0-2-2-|
G|-3-2-0-2-2--2-3-2-0-2-2-|
C|-3-2-0-2-2--2-3-2-0-2-2-|

D|--------------------|
A|--------------------|
F|--------------------|
C|-3-2-0-2-2--2-3-2-0-|
G|-3-2-0-2-2--2-3-2-0-|
C|-3-2-0-2-2--2-3-2-0-|


GUITAR 2
D|----------------------------------------------------|
A|----------------------------------------------------|
F|-9-----------12-----------17-----------14-----------|
C|-9-----------12-----------17-----------14-----------|
G|-7-----------10-----------15-----------12-----------|
C|----------------------------------------------------|   2x

D|-15-14--14-12-----------------------------------|
A|------------------------------------------------|
F|------------------------------------------------|
C|------------------------------------------------|
G|------------------------------------------------|
C|------------------------------------------------|  2x


----------------------------
Verse:

GUITAR 1
D|-----------------|
A|-----------------|
F|-----------------|
C|-0---7---3---5---|
G|-0---7---3---5---|
C|-0---7---3---5---|  4x

D|------------------------|
A|------------------------|
F|------------------------|
C|-3-2-0-2-2--2-3-2-0-2-2-|
G|-3-2-0-2-2--2-3-2-0-2-2-|
C|-3-2-0-2-2--2-3-2-0-2-2-|

D|----------------------|
A|----------------------|
F|----------------------|
C|-3-2-0-2-2--2-3-2-0-2-|
G|-3-2-0-2-2--2-3-2-0-2-|
C|-3-2-0-2-2--2-3-2-0-2-|

D|------------------------|
A|------------------------|
F|------------------------|
C|-3-2-0-2-2--2-3-2-0-2-2-|
G|-3-2-0-2-2--2-3-2-0-2-2-|
C|-3-2-0-2-2--2-3-2-0-2-2-|

D|--------------------|
A|--------------------|
F|--------------------|
C|-3-2-0-2-2--2-3-2-0-|
G|-3-2-0-2-2--2-3-2-0-|
C|-3-2-0-2-2--2-3-2-0-|


GUITAR 2
D|-----------------------|
A|-----------------------|
F|-2-0-2-0---2-0-2-3-2-0-|
C|-----------------------|
G|-----------------------|
C|-----------------------|  4x

D|------------------------|
A|------------------------|
F|------------------------|
C|-3-2-0-2-2--2-3-2-0-2-2-|
G|-3-2-0-2-2--2-3-2-0-2-2-|
C|-3-2-0-2-2--2-3-2-0-2-2-|

D|----------------------|
A|----------------------|
F|----------------------|
C|-3-2-0-2-2--2-3-2-0-2-|
G|-3-2-0-2-2--2-3-2-0-2-|
C|-3-2-0-2-2--2-3-2-0-2-|

D|------------------------|
A|------------------------|
F|------------------------|
C|-3-2-0-2-2--2-3-2-0-2-2-|
G|-3-2-0-2-2--2-3-2-0-2-2-|
C|-3-2-0-2-2--2-3-2-0-2-2-|

D|--------------------|
A|--------------------|
F|--------------------|
C|-3-2-0-2-2--2-3-2-0-|
G|-3-2-0-2-2--2-3-2-0-|
C|-3-2-0-2-2--2-3-2-0-|


----------------------------
Chorus:

GUITAR 1
D|---------------------------------------------------|
A|---------------------------------------------------|
F|-9-----------12------------------------------------|
C|-9-----------12-----------10-----------7-----------|
G|-7-----------10-----------10-----------7-----------|
C|--------------------------10-----------7-----------|

D|--------------------------------------------------|
A|--------------------------------------------------|
F|--------------------------------------------------|
C|-2-----------5-----------10-----------7-----------|
G|-2-----------5-----------10-----------7-----------|
C|-2-----------5-----------10-----------7-----------|

D|------------------------|
A|------------------------|
F|------------------------|
C|-3-2-0-2-3-2--2-2-2-3-2-|
G|-3-2-0-2-3-2--2-2-2-3-2-|
C|-3-2-0-2-3-2--2-2-2-3-2-|  12x


GUITAR 2
D|----------------------------------------------------|
A|----------------------------------------------------|
F|-9-----------12-----------17-----------14-----------|
C|-9-----------12-----------17-----------14-----------|
G|-7-----------10-----------15-----------12-----------|
C|----------------------------------------------------|   2x

D|------------------------|
A|------------------------|
F|------------------------|
C|-3-2-0-2-3-2--2-2-2-3-2-|
G|-3-2-0-2-3-2--2-2-2-3-2-|
C|-3-2-0-2-3-2--2-2-2-3-2-|  12x


----------------------------
Bridge:

GUITAR 1
D|----------------------------------------------------|
A|----------------------------------------------------|
F|-9-----------12-----------17-----------14-----------|
C|-9-----------12-----------17-----------14-----------|
G|-7-----------10-----------15-----------12-----------|
C|----------------------------------------------------|   2x

GUITAR 2
D|----------------------|
A|----------------------|
F|-12-11---12-11--12-11-|
C|----------------------|
G|----------------------|
C|----------------------|  8x


----------------------------
Chorus:

GUITAR 1
D|--------------------------------------------------|
A|--------------------------------------------------|
F|--------------------------------------------------|
C|-2-----------5-----------10-----------7-----------|
G|-2-----------5-----------10-----------7-----------|
C|-2-----------5-----------10-----------7-----------|   2x

D|------------------------|
A|------------------------|
F|------------------------|
C|-3-2-0-2-2--2-3-2-0-2-2-|
G|-3-2-0-2-2--2-3-2-0-2-2-|
C|-3-2-0-2-2--2-3-2-0-2-2-|   2x


GUITAR 2
D|----------------------------------------------------|
A|----------------------------------------------------|
F|-9-----------12-----------17-----------14-----------|
C|-9-----------12-----------17-----------14-----------|
G|-7-----------10-----------15-----------12-----------|
C|----------------------------------------------------|   2x

D|-15-14--14-12-----------------------------------|
A|------------------------------------------------|
F|------------------------------------------------|
C|------------------------------------------------|
G|------------------------------------------------|
C|------------------------------------------------|

I think that's right...I spent awhile trying to get it.  I hope it's ok...
if you find a mistake i'll like you to e-mail me at [email protected] Thanks!!


Текст, аккорды и табулатура для песни "How Can I Live", исполняет "Ill Nino".
Используемые в песне аккорды можно найти в разделе Как брать аккорды. Аккорды для шестиструнной гитары. Другие песни можно найти на нашем сайте, воспользовавшись алфавитным указателем вверху страницы.


 
Ошибка в тексте? Выделите ошибку и нажмите Ctrl+Enter