c tuning

intro
---------------------------------------------------
---------------------------------------------------
-8-8-8-8-7-7-7-7----------------------------------
---------------------------------------------------
-6-6-6-6-5-5-5-5----------------------------------
  Gitar 1 plays it 4 times then guitar 2 joins on second 4.

--------------------------------------------------------
--------------------------------------------------------
--------------------------------------------------------
-------------------------------------0-0---0-0-0--------
-------------------------------------0-0---0-0-0--------
-0-0-0-0-1--0-0-0-0-1--0-0-0-0-1-----0-0---0-0-0--------
  Guitar 1.......................    both guitars   

--------------------------------------------------------
--------------------------------------------------------
--------------------------------------------------------
-0-0-0-0-1---0-0-0-0-1---0-0-0-0-1---0-0-0-0-0----------
-0-0-0-0-1---0-0-0-0-1---0-0-0-0-1---0-0-0-0-0----------
-0-0-0-0-1---0-0-0-0-1---0-0-0-0-1---0-0-0-0-0-5*-------
                                               ..harm

--------------------------------------------------------
--------------------------------------------------------
--------------------------------------------------------
-------------------------0-0-0-0-0----------------------
-------------------------0-0-0-0-0----------------------
-------------------------0-0-0-0-0----------------------
 ...Repeat 1st Riff...              ...Repeat 3rd Riff...

----------------------------------------------------------
----------------------------------------------------------
----------------------------------------------------------
-0-0-0-0-0-0-0-8-8-8-8-8-8-8-5-5-5-5-5-5-5-8-8-8-8-8-8-8
-0-0-0-0-0-0-0-8-8-8-8-8-8-8-5-5-5-5-5-5-5-8-8-8-8-8-8-8
-0-0-0-0-0-0-0-8-8-8-8-8-8-8-5-5-5-5-5-5-5-8-8-8-8-8-8-8
  change rythem througout riff

  i totaly have no idea for th acostic part when i find it what it is i'll put it on

ending
----------------------------------------------------------
----------------------------------------------------------
----------------------------------------------------------
-0-0-0-0-1---0-0-0-0-1---0-0-0-0-1---0-0---0-0-0----------
-0-0-0-0-1---0-0-0-0-1---0-0-0-0-1---0-0---0-0-0----------
-0-0-0-0-1---0-0-0-0-1---0-0-0-0-1---0-0---0-0-0----------

 now practice andd have fun dudes
                                                


Текст, аккорды и табулатура для песни "God Save Us", исполняет "Ill Nino".
Используемые в песне аккорды можно найти в разделе Как брать аккорды. Аккорды для шестиструнной гитары. Другие песни можно найти на нашем сайте, воспользовавшись алфавитным указателем вверху страницы.


 
Ошибка в тексте? Выделите ошибку и нажмите Ctrl+Enter