Ill Nino : God Save Us : Tuning (C-G-C-F-A-D)

Intro:G1
D|------------------|
A|------------------|
F|-8-8-8-8-7-7-7-7-|
C|------------------|
G|-6-6-6-6-5-5-5-5-|
C|------------------|
                  
Intro:G2 Yeah Right!..
G|----------------------0000--|
C|-0000-1-0000-1-0000-1-0000-3|x3

C|-0000-1-0000-1-0000-1-00000---|
G|-0000-1-0000-1-0000-1-00000---|x3
C|-0000-1-0000-1-0000-1-00000-3-|
                                                                       
Chorus: G1
C|-14-14--12-12--7-7-9-|
G|-12-12--10-10--5-5-8-|
C|-12-12--10-10--5-5-8-|
                 
Chorus:G2
C|-0000000--88888885555555/8888888-|
G|-0000000--88888885555555/8888888-|
C|-0000000--88888885555555/8888888-|

Acoustic part:G1
C|-------14-------14-------12-------12-----7-----7-----9-|
G|----12-------12-------10-------10------5-----5-----8---|x2
C|-12-------12-------10-------10-------5-----5-----8-----|

Ending:
C|-0000-1-0000-1--0000-1-00-000-|
G|-0000-1-0000-1--0000-1-00-000-|
C|-0000-1-0000-1--0000-1-00-000-|

End
Tabed by Nur-Karim


Текст, аккорды и табулатура для песни "God Save Us", исполняет "Ill Nino".
Используемые в песне аккорды можно найти в разделе Как брать аккорды. Аккорды для шестиструнной гитары. Другие песни можно найти на нашем сайте, воспользовавшись алфавитным указателем вверху страницы.


 
Ошибка в тексте? Выделите ошибку и нажмите Ctrl+Enter