Here is the CORRECT COMPLETE SOLO if you wanna play it right.


e------------------------------------------------------e
b------------------------------------------------------b
g------------------------------------------------------g
d-5-5-5-7-7/9--9-7/9-9-9-7-5-5--5----------------------d
a---------------------------------5-5/7~--7h8p75------a
e------------------------------------------------------e

e------------------------------------------------------e
b--------7----------7-----r7-8-7-----------------------b
g-r5/7-7-7-7---7-7-7---7--r7------7-----------------7--g
d-r0----------------------r7---------7/9-7---7/95/7---d
a------------------------------------------------------a
e------------------------------------------------------e

~  = Vib
h  = hammer on
p  = pull off
/ = slide
r  = rake strings w/ slight palm mute

l8ter!


Текст, аккорды и табулатура для песни "Hero (solo ver 3)", исполняет "Iglesias Enrique".
Используемые в песне аккорды можно найти в разделе Как брать аккорды. Аккорды для шестиструнной гитары. Другие песни можно найти на нашем сайте, воспользовавшись алфавитным указателем вверху страницы.


 
Ошибка в тексте? Выделите ошибку и нажмите Ctrl+Enter