This is how the guy did it on the box im sure

Standard tuning

Intro:
---3------3------3------3------3------3------3------3-------
----3------3------3------3------3------3------3------3------
------0------0------0------0------0------0------2------2----
-------------------------------------------0------0------0--
-----------------------------3------3-----------------------
-3------3------0------0-------------------------------------
                                                            
Verse 1:                                                     
---3------3------3------3------3------3------3------3-------
----3------3------3------3------3------3------3------3------
------0------0------0------0------0------0------2------2----
-------------------------------------------0------0---------
-----------------------------3------3-----------------------
-3------3------0------0-------------------------------------
                                                                              

---3------3------3------3------3------3------3------3-------
----3------3------3------3------3------3------3------3------
------0------0------0------0------0------0------2------0----
------------------------------------0-----------------------
-----------------------------3------------------------------
-3------3------0------0--------------------3------3---------              X2
Chorus:
listen to song to get the strumming

I can be your Hero Baby..... I can kiss away the pain......
G     D            C         G     D             C      
3-----3------------3---------3-----3-------------3----------
3-----3------------3---------3-----3-------------3----------
0-----2------------0---------0-----2-------------0----------
0-----0------------2---------0-----0-------------2----------
2-----0------------3---------2-----0-------------3----------
3-----2------------0---------3-----2-------------0----------

I will stand by you forever....You can take...my breath away
G      D             C         G      D             C
3------3-------------3---------3------3-------------3------
3------3-------------3---------3------3-------------3------
0------2-------------0---------0------2-------------0------
0------0-------------2---------0------0-------------2------
2------0-------------3---------2------0-------------3------
3------2-------------0---------3------2-------------0------


Verse 2:

---3------3------3------3------3------3------3------3-------
----3------3------3------3------3------3------3------3------
------0------0------0------0------0------0------2------2----
-------------------------------------------0------0---------
-----------------------------3------3-----------------------
-3------3------0------0-------------------------------------
                                                                              

---3------3------3------3------3------3------3------3-------
----3------3------3------3------3------3------3------3------
------0------0------0------0------0------0------2------0----
------------------------------------0-----------------------
-----------------------------3------------------------------
-3------3------0------0--------------------3------3---------              X2

Chorus:

I can be your Hero Baby..... I can kiss away the pain......
G     D            C         G     D             C      
3-----3------------3---------3-----3-------------3----------
3-----3------------3---------3-----3-------------3----------
0-----2------------0---------0-----2-------------0----------
0-----0------------2---------0-----0-------------2----------
2-----0------------3---------2-----0-------------3----------
3-----2------------0---------3-----2-------------0----------

I will stand by you forever....You can take...my breath away
G      D             C         G      D             C
3------3-------------3---------3------3-------------3------
3------3-------------3---------3------3-------------3------
0------2-------------0---------0------2-------------0------
0------0-------------2---------0------0-------------2------
2------0-------------3---------2------0-------------3------
3------2-------------0---------3------2-------------0------


Solo:

------------------------------------------------------------
-----------------------7---------7-8-7----------------------
---------------5/7-7-7---7----7h9------7------------------7-
-5-5-5-7-7/9-------------------------------7/9-7---9p7---9--
------------------------------------------------------10----
------------------------------------------------------------
                                                                              

Verse 3:

---3------3------3------3------3------3------3------3-------
----3------3------3------3------3------3------3------3------
------0------0------0------0------0------0------2------2----
-------------------------------------------0------0---------
-----------------------------3------3-----------------------
-3------3------0------0-------------------------------------
                                                                              

---3------3------3------3------3------3------3------3-------
----3------3------3------3------3------3------3------3------
------0------0------0------0------0------0------2------0----
------------------------------------0-----------------------
-----------------------------3------------------------------
-3------3------0------0--------------------3------3---------

Chorus:

I can be your Hero Baby..... I can kiss away the pain......
G     D            C         G     D             C      
3-----3------------3---------3-----3-------------3----------
3-----3------------3---------3-----3-------------3----------
0-----2------------0---------0-----2-------------0----------
0-----0------------2---------0-----0-------------2----------
2-----0------------3---------2-----0-------------3----------
3-----2------------0---------3-----2-------------0----------

I will stand by you forever....You can take...my breath away
G      D             C         G      D             C
3------3-------------3---------3------3-------------3------
3------3-------------3---------3------3-------------3------
0------2-------------0---------0------2-------------0------
0------0-------------2---------0------0-------------2------
2------0-------------3---------2------0-------------3------
3------2-------------0---------3------2-------------0------

You can take...my breath away..I can..be....your....hero
G       D         C            G      D             C
3-------3---------3------------3------3-------------3------
3-------3---------3------------3------3-------------3------
0-------2---------0------------0------2-------------0------
0-------0---------2------------0------0-------------2------
2-------0---------3------------2------0-------------3------
3-------2---------0------------3------2-------------0------


Текст, аккорды и табулатура для песни "Hero", исполняет "Iglesias Enrique".
Используемые в песне аккорды можно найти в разделе Как брать аккорды. Аккорды для шестиструнной гитары. Другие песни можно найти на нашем сайте, воспользовавшись алфавитным указателем вверху страницы.


Слушать онлайн Hero


The Hit Co.Hero на Яндекс.Музыке


 
Ошибка в тексте? Выделите ошибку и нажмите Ctrl+Enter