This is how i will presume Billy Idol plays it, it sounds perfect to me, Worked a
lot with it, for corrections e-mail [email protected] !



   verse 1 and intro

     guitar 1  (x12)
   e|--------------------|
   B|--------------------|
   G|--999-9-9-8-9-11-9--|
   D|--------------------|
   A|--------------------|
   E|--------------------|



    Chorus
                guitar 2                                          
   e|------------------------------| It's many ways
   B|------------------------------| you can play
   G|--99999-----------------------| this chorus.          
   D|--99999--77777--99999--77777--| Our band usually
   A|--77777--77777--99999--77777--| Just mute this part
   E|---------55555--77777--55555--| a bit
      
      guitar 1     Guitar 2
   e|----------|--------------|This is how 
   B|----------|--------------|Chorus ends
   G|--999999--|--9----Let----|on both guitars
   D|----------|--9----This---|
   A|----------|--7----Ring!--|
   E|----------|--------------|


   Verse 2

     guitar 1  (x8)  
   e|--------------------|
   B|--------------------|
   G|--999-9-9-8-9-11-9--|
   D|--------------------|
   A|--------------------|
   E|--------------------|


    Chorus
                guitar 2                                          
   e|------------------------------| It's many ways
   B|------------------------------| you can play
   G|--99999-----------------------| this chorus.          
   D|--99999--77777--99999--77777--| Our band usually
   A|--77777--77777--99999--77777--| Just mute this part
   E|---------55555--77777--55555--| a bit
      
      guitar 2
   e|-----------------------------|
   B|-----------------------------|
   G|--9--------------------------|
   D|--9-----7-----2-----9--999999|
   A|--7-----7-----2-----9--999999|
   E|--------5-----0-----7--777777|


    Solo

      Guitar 1   (x6)
   e|-----------------------|---------------------------------|
   B|-----------------------|---------------------------------|
   G|-----------------4464--|-----------------444-44-44-4444--|
   D|-------2222-4444-------|-------2222-4444----4--4--4------|
   A|--2222-----------------|--2222---------------------------|
   E|-----------------------|---------------------------------|


   verse 3

     guitar 1  (x7)
   e|-------------------|The reason for Why I
   B|--555-5-5-4-5-7-5--|suddendly moved The
   G|-------------------|place we usually Play
   D|-------------------|the verse is that it is
   A|-------------------|much easier to jump to
   E|-------------------|this place after the solo =)
     guitar 1  guitar 2
   e|-------| |--------|Guitar 2 plays this AFTER
   B|--2h0--| |--------|guitar one have played its
   G|-------| |--------|tones, not at the same time
   D|-------| |--7777--|
   A|-------| |--7777--|
   E|-------| |--5555--|


 Chorus
                guitar 2                                          
   e|------------------------------| It's many ways
   B|------------------------------| you can play
   G|--99999-----------------------| this chorus.          
   D|--99999--77777--99999999999---| Our band usually
   A|--77777--77777--99999999999---| Just mute this part
   E|---------55555--77777777777---| a bit

          (x7)        
   e|----------------|
   B|----------------|
   G|--99999---------|
   D|--99999--77777--|
   A|--77777--77777--|
   E|---------55555--|

 PLAY AND ENJOY!


Текст, аккорды и табулатура для песни "Dancing With Myself", исполняет "Idol Billy".
Используемые в песне аккорды можно найти в разделе Как брать аккорды. Аккорды для шестиструнной гитары. Другие песни можно найти на нашем сайте, воспользовавшись алфавитным указателем вверху страницы.


 
Ошибка в тексте? Выделите ошибку и нажмите Ctrl+Enter