Song: You held the world in your arms
 Artist: Idlewild
 Album: Remote Part
 Tabbed by: Alistair O'Donnell

 Intro/ Chorus

E|------------------------------------------------------------|
B|------------------------------------------------------------|
G|------------------------------------------------------------|
D|---11--13--13h14--13--9--13--13h14--13--9--13--11--13--11---| x2
A|------------------------------------------------------------|
E|------------------------------------------------------------|

 Verse:

E|--------------------------------------------|
B|--------------------------------------------|
G|------13-------11------9--------------------|
D|--11------11-------11-----13h14--9--13--11--|
A|--------------------------------------------| x5
E|--------------------------------------------|

 Pre-Chorus

E|-------------------------------------------------------|
B|-------------------------------------------------------|
G|--14--13------14--13------14--13------14--13-----------|
D|----------11----------11----------11----------11--14---| x4
A|-------------------------------------------------------|
E|-------------------------------------------------------|

 Solo:

E|--------------------------------------------|
B|--------------------------------------------|
G|--------------------------------------------|
D|--11--14--13--11--9--14--13--11--9--13--11--| x2 then...
A|--------------------------------------------|
E|--------------------------------------------|

E|--------------------------------------------|
B|--------------------------------------------|
G|--11--14--13--11--9--14--13--11--9--13--11--|
D|--------------------------------------------| x2
A|--------------------------------------------|
E|--------------------------------------------|

 this works if you play along with the cd!!

 bye now


Текст, аккорды и табулатура для песни "You Held The World In Your Arms", исполняет "Idlewild".
Используемые в песне аккорды можно найти в разделе Как брать аккорды. Аккорды для шестиструнной гитары. Другие песни можно найти на нашем сайте, воспользовавшись алфавитным указателем вверху страницы.


 
Ошибка в тексте? Выделите ошибку и нажмите Ctrl+Enter