Intro: C#5 E5 B5 A5

Intro/Chorus keyboard riff
e -9-11-11-12-11----11-11-12-11----11-9-------9-------
B ---------------12-------------12---------12---------
G ----------------------------------------------------
D ----------------------------------------------------
A ----------------------------------------------------
E ----------------------------------------------------

Verse: C#5 A5 B5

Pre-Chorus: A5 C#5 B5

Pre-Chorus Riff x4

e -5-4---5-4---5-4---5-4------------------------------
B -----2-----2-----2-----2-5--------------------------
G ----------------------------------------------------
D ----------------------------------------------------
A ----------------------------------------------------
E ----------------------------------------------------

Chorus: C#5 E5 B5 A5
Verse 2: C#5 A5 B5
Pre-Chorus: A5 C#5 B5
Chorus: C#5 E5 B5 A5
Solo: C#5 E5 B5 A5      

e ----------------------------------------------------
B -2-5-4---5-4-2---2s4s2--2-5-4---5-4-2---2s4s2-4-----
G -------4-------2--------------2-------2-------------
D ----------------------------------------------------
A ----------------------------------------------------
E ----------------------------------------------------

Keyboard Solo: C#5 E5 B5 A5

e ---------------------------------------------------------
B -4-5--4-2----------2-0---0---0---0---0--0---4-5-4-2------
G ----------4--4-2-4-----1---1---1---1----------------4-2--
D --------------------------------------4---4--------------
A ---------------------------------------------------------
E ---------------------------------------------------------

e ---------------------------------------------------------
B ---2-4-5-------------------------------------------------
G -4-------------------------------------------------------
D ---------------------------------------------------------
A ---------------------------------------------------------
E ---------------------------------------------------------

Chorus x2
Finish on C#5


Текст, аккорды и табулатура для песни "You Held The World In Your Arms", исполняет "Idlewild".
Используемые в песне аккорды можно найти в разделе Как брать аккорды. Аккорды для шестиструнной гитары. Другие песни можно найти на нашем сайте, воспользовавшись алфавитным указателем вверху страницы.


 
Ошибка в тексте? Выделите ошибку и нажмите Ctrl+Enter