part 1
play 3 times
G|------------------------------------|------------------------------------
D|------------------------------------|------------------------------------
A|----6----6--4----4--2---2-2-2-4-4---|----6----6--4----4--2---2-2-2-4-4---
E|------------------------------------|------------------------------------

bridge
G|------------------------------------|---
D|------------------------------------|---
A|--/9-9-9-9-9-9-9-9-/9-9-9-9-9-9-9-9|---
E|------------------------------------|---

part 2
play 4 times
G|------------------------------------|------------------------------------
D|------------------------------------|------------------------------------
A|---9-9-9--6--9--6-------------------|---9-9-9--6--9--6-------------------
E|-------------------7-7-7-7-7-7-7-7--|-------------------7-7-7-7-7-7-7-7--

part 3(voice over and outro)
play to end
G|------------------------------------|------------------------------------
D|------------------------------------|------------------------------------
A|---6-6-6--9--9-9--------------------|---6-6-6--9--9-9--------------------
E|-----------------7--7-7-7--7-7-7-7--|-----------------7--7-7-7--7-7-7-7--

/ slide up


Текст, аккорды и табулатура для песни "In Remote Part - Scottish Fiction", исполняет "Idlewild".
Используемые в песне аккорды можно найти в разделе Как брать аккорды. Аккорды для шестиструнной гитары. Другие песни можно найти на нашем сайте, воспользовавшись алфавитным указателем вверху страницы.


 
Ошибка в тексте? Выделите ошибку и нажмите Ctrl+Enter