band:idlewild
album:Hope Is Important(1998)
song:everyone says you're so fragile
bassist:bob fairfoul
tabber:paul([email protected])

intro/chorus
G--------------------------------------------------------------------
D--------------------------------------------------------------------
A-------8-8-6-6-------6-6-4-4-------8-8-6-6-1-1-1-1-1-1-1-1-4-4-4-4-4-4-4-4
E-4-*4*---------4-*4*---------4-*4*----------------------------------------

verse/solo
g-----------------
d-----------------6
a-----6---6---4-4--
e-4-4---4---4----



Текст, аккорды и табулатура для песни "Everyone Says Youre So Fragile", исполняет "Idlewild".
Используемые в песне аккорды можно найти в разделе Как брать аккорды. Аккорды для шестиструнной гитары. Другие песни можно найти на нашем сайте, воспользовавшись алфавитным указателем вверху страницы.


 
Ошибка в тексте? Выделите ошибку и нажмите Ctrl+Enter