Drop D

F#||--------------------|--------------------|--------------------|
C#||--------------------|--------------------|--------------------|
G#||--------------------|--------------------|--------------------|
D#||--0--0--------------|--0--0--------------|--0--0--------------|


                                                             
------------------|--------------------|--------------------|
------------------|--------------------|--------------------|
------------------|--------------------|--------------------|
------------------|--0--0--------------|--0--0--------------|


                                                             
--------------------|------------------|--------------------|
--------------------|------------------|--------------------|
--------------------|------------------|--------------------|
--0--0--------------|------------------|--0--0--------------|


                                                             
--------------------|--------------------|------------------|
--------------------|--------------------|------------------|
--------------------|--------------------|------------------|
--0--0--------------|--0--0--------------|------------------|


                                                               
--------------------|--------------------|--------------------|
--------------------|--------------------|--------------------|
--------------------|--------------------|--------------------|
--0--0--------------|--0--0--------------|--0--0--------------|


                                                                        
------------------|----------------|------------------|----------------|
------------------|----------------|------------------|----------------|
------------------|--7------7------|--7---7---7-8-7---|----------------|
------------------|----------------|------------------|--7------7------|


                                                                          
------------------|-----------------|-------------------|----------------|
------------------|-----------------|-------------------|----------------|
------------------|--5--------------|--5-----5-7-5------|--7------7------|
--7---7---7-8-7---|---------5---8---|-------------------|----------------|


                                                                        
------------------|----------------|------------------|----------------|
------------------|----------------|------------------|----------------|
--8-7---8-7---8-7-|--7------7------|--7---7---7-8-7---|----------------|
------------------|----------------|------------------|--7------7------|


                                                                          
------------------|-----------------|-------------------|----------------|
------------------|-----------------|-------------------|----------------|
------------------|--5--------------|--5-----5-7-5------|--7------7------|
--7---7---7-8-7---|---------5---8---|-------------------|----------------|


                                                                             
------------------|-------------------|------------------|------------------|
------------------|-------------------|------------------|------------------|
--8-7---8-7---8-7-|-------------------|------------------|------------------|
------------------|--0----------------|------------------|------------------|


                                                              
------------------|-------------------|----------------------|
------------------|-------------------|----------------------|
------------------|--3----------------|----------------------|
------------------|-------------------|--3------2------3--2--|


                                                            
-------------------|------------------|--------------------|
-------------------|------------------|--------------------|
-------------------|------------------|-----------------2--|
--0----------------|------------------|--0-----------------|


                                                                  
---------------------|---------------------|---------------------|
--2------------------|---------------2--4--|--5------4------4----|
---------------0--2--|--3------------------|---------------------|
---------------------|---------------------|---------------------|


                                                                  
------------------------|-------------------|--------------------|
--2------4--5--4--2--0--|--2----------------|--------------------|
------------------------|-------------------|-----------------2--|
------------------------|-------------------|--0-----------------|


                                                                  
---------------------|---------------------|---------------------|
--2------------------|---------------2--4--|--5------4------4----|
---------------0--2--|--3------------------|---------------------|
---------------------|---------------------|---------------------|


                                                                      
---------------------|--------------------|--------------------------|
--2--------------2-4-|--2-----------------|--------------------------|
---------------------|--------------------|--------------------------|
---------------------|-----------------0--|--2----0--2----2--2-2-2-2-|


                                                      
--------------------------|--------------------------|
--------------------------|--------------------------|
--------------------------|----------1----1--1-1-1-1-|
--2----0--2----2--2-2-2-2-|--0----0------------------|


                                                      
--------------------------|--------------------------|
--------------------------|--------------------------|
----------1----1--1-1-1-1-|--------------------------|
--0----0------------------|--2----0--2----2--2-2-2-2-|


                                                      
--------------------------|--------------------------|
--------------------------|--------------------------|
--------------------------|----------1----1--1-1-1-1-|
--2----0--2----2--2-2-2-2-|--0----0------------------|


                                                                  
--------------------------|-------------------|------------------|
--------------------------|--2----------------|------------------|
----------1----1--1-1-1-1-|-------------------|------------------|
--0----0------------------|--0----------------|------------------|


                                                                
------------------|------------------------|-------------------|
------------------|------------------------|-------------------|
------------------|------------------------|-------------------|
------------------|--1--1----3--3----3--1--|--0----------------|


                                                                      
------------------------|-------------------|------------------------|
------------------------|-------------------|------------------------|
------------------------|-------------------|------------------------|
--1--1----3--3----3--1--|--0----------------|--1--1----3--3----3--1--|


                                                               
-------------------|----------------------|-------------------|
-------------------|--3------5------5--3--|-------------------|
-------------------|----------------------|-------------------|
--0----------------|----------------------|--0----------------|


                                                                   
-----------------------|-------------------|----------------------|
--3--3----5------5--3--|-------------------|--3------5------5--3--|
-----------------------|-------------------|----------------------|
-----------------------|--0----------------|----------------------|


                                                                         
-------------------|-----------------------|----------------------------|
-------------------|--3--3----5------5--3--|----------------------------|
-------------------|-----------------------|--7-7-7-7-7--7--7-7--8------|
--0----------------|-----------------------|----------------------------|


                                                           
-----------------------------|----------------------------|
-----------------------------|----------------------------|
--7-7-7-7-7--7--7-8-7-7------|--7-7-7-7-7--7--7-7--8------|
-----------------------------|----------------------------|


                                                              
-----------------------------|-------------------------------|
-----------------------------|-------------------------------|
--7-7-7-7-7--7--7-8-7-7------|--7-7-7-7-7-7-7-7-7-7-7-8------|
-----------------------------|-------------------------------|


                                                                
-------------------------------|-------------------------------|
-------------------------------|-------------------------------|
--7-7-7-7-7-7-7-7-7-8-7-7------|--7-7-7-7-7-7-7-7-7-7-7-8------|
-------------------------------|-------------------------------|


                                                                
-------------------------------|-------------------------------|
-------------------------------|-------------------------------|
--7-7-7-7-7-7-7-7-7-8-7-7------|--7-7-7-7-7-7-7-7-7-7-7-8------|
-------------------------------|-------------------------------|


                                                                
-------------------------------|-------------------------------|
-------------------------------|-------------------------------|
--7-7-7-7-7-7-7-7-7-8-7-7------|--7-7-7-7-7-7-7-7-7-7-7-8------|
-------------------------------|-------------------------------|


                                                             
-------------------------------|----------------------------|
-------------------------------|----------------------------|
--7-7-7-7-7-7-7-7-7-8-7-7------|--5----5-7-5----------------|
-------------------------------|-------------5-6----6-7-6-5-|


                                                                        
------------------------------------------|----------------------------|
------------------------------------------|----------------------------|
--7-7-7-7-7-7-7-7-8-8-8-8-5-5-5-5-7-7-7-7-|--5----5-7-5----------------|
------------------------------------------|-------------5-6----6-7-6-5-|


                                                                
-------------------------------|-------------------------------|
-------------------------------|-------------------------------|
--7-7-7-7-7-7-7-7-7-7-7-8------|--7-7-7-7-7-7-7-7-7-8-7-7------|
-------------------------------|-------------------------------|


                                                                
-------------------------------|-------------------------------|
-------------------------------|-------------------------------|
--7-7-7-7-7-7-7-7-7-7-7-8------|--7-7-7-7-7-7-7-7-7-8-7-7------|
-------------------------------|-------------------------------|


                                                                
-------------------------------|-------------------------------|
-------------------------------|-------------------------------|
--7-7-7-7-7-7-7-7-7-7-7-8------|--7-7-7-7-7-7-7-7-7-8-7-7------|
-------------------------------|-------------------------------|


                                                                
-------------------------------|-------------------------------|
-------------------------------|-------------------------------|
--7-7-7-7-7-7-7-7-7-7-7-8------|--7-7-7-7-7-7-7-7-7-8-7-7------|
-------------------------------|-------------------------------|


                                                                        
----------------------------|------------------------------------------|
----------------------------|------------------------------------------|
--5----5-7-5----------------|--7-7-7-7-7-7-7-7-8-8-8-8-5-5-5-5-7-7-7-7-|
-------------5-6----6-7-6-5-|------------------------------------------|


                                                                
----------------------------|----------------------------------|
----------------------------|----------------------------------|
--5----5-7-5----------------|--7-------------------------------|
-------------5-6----6-7-6-5-|----0-0-0-0-0-0-0-0-0-0-0-0-0-0-0-|


                                                                        
----------------------------|------------------------------------------|
----------------------------|------------------------------------------|
--5----5-7-5----------------|--7-7-7-7-7-7-7-7-8-8-8-8-5-5-5-5-7-7-7-7-|
-------------5-6----6-7-6-5-|------------------------------------------|


                                           
------------------------------------------|
------------------------------------------|
--7-7-7-7-7-7-7-7-8-8-8-8-5-5-5-5-7-7-7-7-|
------------------------------------------|


                                           
------------------------------------------|
------------------------------------------|
--7-7-7-7-7-7-7-7-8-8-8-8-5-5-5-5-7-7-7-7-|
------------------------------------------|


                                                               
------------------------------------------|-------------------|
------------------------------------------|-------------------|
--7-7-7-7-7-7-7-7-8-8-8-8-5-5-5-5-7-7-7-7-|-------------------|
------------------------------------------|--0----------------|


                                                                             
------------------|------------------|------------------|-------------------|
------------------|------------------|------------------|-------------------|
------------------|------------------|------------------|-------------------|
------------------|------------------|------------------|--0----------------|


                                                                               
-------------------|-------------------|------------------|-------------------|
-------------------|-------------------|------------------|-------------------|
-------------------|-------------------|------------------|-------------------|
--------------3----|--2----------------|------------------|--0----------------|


                                                                               
-------------------|-------------------|------------------|-------------------|
-------------------|-------------------|------------------|-------------------|
-------------------|-------------------|------------------|-------------------|
--------------3----|--2----------------|------------------|--0----------------|


                                                           
-------------------|-------------------|------------------|
-------------------|-------------------|------------------|
-------------------|-------------------|------------------|
--------------3----|--2----------------|------------------|


                                                                
----------------------------------|----------------------------|
----------------------------------|----------------------------|
--7-7-7-7-5--7--5-7-7-7-7-5--7----|----------------------------|
--------------------------------5-|--6----6-7-6-5----0-5-6-5-3-|


                                                                
----------------------------------|----------------------------|
----------------------------------|----------------------------|
--7-7-7-7-5--7--5-7-7-7-7-5--7----|----------------------------|
--------------------------------5-|--6----6-7-6-5----0-5-6-5-3-|


                                                                
----------------------------------|----------------------------|
----------------------------------|----------------------------|
--7-7-7-7-5--7--5-7-7-7-7-5--7----|----------------------------|
--------------------------------5-|--6----6-7-6-5----0-5-6-5-3-|


                                                                
----------------------------------|----------------------------|
----------------------------------|----------------------------|
--7-7-7-7-5--7--5-7-7-7-7-5--7----|----------------------------|
--------------------------------5-|--6----6-7-6-5----0-5-6-5-3-|


                                                                
----------------------------------|----------------------------|
----------------------------------|----------------------------|
--7-7-7-7-5--7--5-7-7-7-7-5--7----|----------------------------|
--------------------------------5-|--6----6-7-6-5----0-5-6-5-3-|


                                                                
----------------------------------|----------------------------|
----------------------------------|----------------------------|
--7-7-7-7-5--7--5-7-7-7-7-5--7----|----------------------------|
--------------------------------5-|--6----6-7-6-5----0-5-6-5-3-|


                                                                
----------------------------------|----------------------------|
----------------------------------|----------------------------|
--7-7-7-7-5--7--5-7-7-7-7-5--7----|----------------------------|
--------------------------------5-|--6----6-7-6-5----0-5-6-5-3-|


                                                                
----------------------------------|----------------------------|
----------------------------------|----------------------------|
--7-7-7-7-5--7--5-7-7-7-7-5--7----|----------------------------|
--------------------------------5-|--6----6-7-6-5----0-5-6-5-3-|


                                                                   
--------------------------|-------------------|------------------||
--------------------------|-------------------|------------------||
--------------------------|-------------------|------------------||
--2----2-2-2--1----1-1-1--|--5----------------|------------------||


Текст, аккорды и табулатура для песни "Angels Holocaust", исполняет "Iced Earth".
Используемые в песне аккорды можно найти в разделе Как брать аккорды. Аккорды для шестиструнной гитары. Другие песни можно найти на нашем сайте, воспользовавшись алфавитным указателем вверху страницы.


 
Ошибка в тексте? Выделите ошибку и нажмите Ctrl+Enter