Tab: Serey Siv
Email: [email protected]
Song: I Am Kloot - Same Deep Water As Me
Date: April 20th, 2004
----------------------------

My favorite song is the 2nd album. The strumming is 
very important here...so pay attention on how you 
should strum the chords.


Chords:
D   -[x00232]
G    [355433]
F#m  [244222]
Bm   [224442]




[[Intro]]

|---------------------------------|
|-----3-3-3~--5-------3-3-3--(2)--| 
|-----4-4-4~--6-------4-4-4---2---|  X2
|---4-----------2---4-----------2-|
|-2---------------2---------------|
|---------------------------------|


[[Verse I]]

Bm               D
 Swim out to the ocean
Bm                         D
 Drown your thought out at sea
D                          G
 And dip your hands in the water
F#m                     G
 The same deep water as me
Bm                        D
 You've been watching for cloudbursts
Bm                       D
 You've been praying for rain
D                        G
 Drench your soul in the water
F#m                        G
 Cleanse your heart of the stain
F#m                        G 
 Cleanse your heart of the stain


[[Chorus]]
                *
|---2-----2-----2-|
|-----3-----3-----|
|-4-----4-----4---|  X8
|-----------------|
|-----------------|
|-----------------|


[[Verse II]]

Bm            D
 The river of love
Bm                      D
 Flows deep through the night
D                      G
 Rolls you in with the waves
F#m                     G
 Drags you out with the tides
Bm               D
 Swim out to the ocean
Bm                             D 
 And drown our thoughts out at sea
D                             G
 And dipped your hands in the water
F#m                     G
 The same deep water as me
F#m                     G
 The same deep water as me 


[[Chorus]]


[[Ending]]

|---------------2---------------2-|
|-----3-3-3~--5-3-----3-3-3--(2)3-| 
|-----4-4-4~--6-4-----4-4-4---2-4-|  X2
|---4-----------4---4-----------4-|
|-2-------------2-2-------------2-|
|---------------2---------------2-|


*Sometimes the last F# isn't played (2)


Текст, аккорды и табулатура для песни "Same Deep Water As Me", исполняет "I Am Kloot".
Используемые в песне аккорды можно найти в разделе Как брать аккорды. Аккорды для шестиструнной гитары. Другие песни можно найти на нашем сайте, воспользовавшись алфавитным указателем вверху страницы.


 
Ошибка в тексте? Выделите ошибку и нажмите Ctrl+Enter