This tab is not perfect by any means so don't rely on it totally, but it's not 
miles off, so try the parts that I have worked out, and write down all the corrections!

|-----------------------------
|-------------2p0-----2p0-----
|-----2-----2-----2p0-----0h2-
|---0-------------------------
|-0-----2-2-------------------
|-----------------------------

|-------------------------
|-------------------------
|-------------------------
|-9-9-9-7-7-7-5-5-5-7-7-7-
|-9-9-9-7-7-7-5-5-5-7-7-7-
|-7-7-7-5-5-5-3-3-3-5-5-5-

|-----------------------------
|-------------2p0-----2p0-----
|-----2-----2-----2p0-----0h2-
|---0-------------------------
|-0-----2-2-------------------
|-----------------------------

|----------------------------------------------------
|-3-3-3-3-3-3--3-3-3-3-3-3--5-5-5-5-5-5--5-5-5-5-5-5-
|-2-2-2-2-2-2--2-2-2-2-2-2--4-4-4-4-4-4--4-4-4-4-4-4-
|-0-0-0-0-0-0--0-0-0-0-0-0--3-3-3-3-3-3--3-3-3-3-3-3-
|----------------------------------------------------
|----------------------------------------------------

|---------------------------------
|-----5-------5-------5-------5---
|---4---4---4---4---4---4---4---4-
|-2-------2-------0-------0-------
|---------------------------------
|---------------------------------

|-----------------------------------
|-----5-------5-------5-------5/75-
|---4---4---4---4---4---4---2-------
|-2-------2-------0-------0---------
|-----------------------------------
|-----------------------------------

|-------------------------
|-------------------------
|-9-9-9-9-9-9-9-9-5-5-5-5-5-5-5-5-2-2-2-2-2-2-2-2-------
|-9-9-9-9-9-9-9-9-5-5-5-5-5-5-5-5-2-2-2-2-2-2-2-2-5-5-5-5-5-5-5-5-
|-7-7-7-7-7-7-7-7-3-3-3-3-3-3-3-3-0-0-0-0-0-0-0-0-5-5-5-5-5-5-5-5-
|-------------------------------------------------3-3-3-3-3-3-3-3-
  . . . . . . . . . . . . . . . . . . . . . . . . . . . . . . . .

|------------------------
|------------------------
|------------------------
|--7-7--5-5--2-2-2-2-2-2-
|--7-7--5-5--2-2-2-2-2-2-
|--5-5--3-3--0-0-0-0-0-0-


Текст, аккорды и табулатура для песни "Remmus", исполняет "Hundred Reasons".
Используемые в песне аккорды можно найти в разделе Как брать аккорды. Аккорды для шестиструнной гитары. Другие песни можно найти на нашем сайте, воспользовавшись алфавитным указателем вверху страницы.


 
Ошибка в тексте? Выделите ошибку и нажмите Ctrl+Enter