Title: If I Could
Artist: Hundred Reasons
Album: Ideas Above our station

Instrument: 6 String Guitar

Tabbed by: Mark Brown ([email protected])

Tuning: 1 Step Down (D G C F A D)

This is my first tab off the album.  I think this are so amazing and i thought they
 deserved best album at the kerrang awards.  I am gonna do more because they r so good, 
and u guys proberly want sum more hundred reason tabs.  I hav heard that all but 1 off 
there songs r a whole step down, so this is the tuning 4 this song,  hope u like it, 
and expect more soon.

Intro
Gtr 1 clean
D|----------------------------------------------||
A|----------------------------------------------||
F|--14--14---14--14-------14--14---14--14-------||
C|---x---x----x---x---14---x---x----x---x--14---||
G|--12--12---12--12----x--12--12---12--12---x---||
D|--------------------12-------------------12---||

Gtr 2 dist
D|--x--x--x--x------------------||
A|--x--x--x--x------------0-----||
F|--x--x--x--x------------0-----||
C|--x--x--x--x------------0-----||
G|--x--x--x--x------------0-----||
D|--x--x--x--x------------------||

Gtr 2        Gtr 1 intro
D|--------------0---------------0------------------0------------------0-||
A|--------------0---------------0------------------0------------------0-||
F|--------------0---------------0------------------0------------------0-||
C|--7-7--7--7-7-----9-9--9--9-9----10-10--10-10-10---12-12--12-12-12----||
G|--7-7--7--7-7-----9-9--9--9-9----10-10--10-10-10---12-12--12-12-12----||
D|--5-5--5--5-5-----7-7--7--7-7-----8--8---8--8--8---10-10--10-10-10----||

Gtrs 1&2
D|---------------------------------||
A|---------------------------------||
F|---------------------------------||
C|-7-7-7-7-7--2--6--7-7-7-7-7--2---||
G|-7-7-7-7-7--2--6--7-7-7-7-7--2---||
D|-5-5-5-5-5--0--4--5-5-5-5-5--0---||

Verse
Gtr 1 clean
D|----------------------------------------------------------------------------||
A|----------------------------------------------------------------------------||
F|-14-14--14-14-14-14-14-14-14--14-14-14-14-14-14-14-14-14-14-14-14-14-14-14--||
C|--x--x---x--x--x--x--x--x--x---x--x--x--x--x--x--x--x--x--x--x--x--x--x--x--||
G|-12-12--12-12-12-12-12-12-12--12-12-12-11-11-11-11-11-11-11-11-11-11-11-11--||
D|----------------------------------------------------------------------------||

D|--------------------------------------------------------------------------||
A|--------------------------------------------------------------------------||
F|-16-16-16-16-16-16-16-16-16-16-16-16-16-16-16-16-16-16-16-16-16-16-16-16--||
C|--x--x--x--x--x--x--x--x--x--x--x--x--x--x--x--x--x--x--x--x--x--x--x--x--||
G|-14-14-14-14-14-14-14-14-14-14-14-14-14-14-14-14-14-14-14-14-14-14-14-14--||
D|--------------------------------------------------------------------------||

D|--------0--------||
A|--------0--------||
F|-0------0--------||
C|-0---------------||
G|-0---------------||
D|-----------------||

Chorus
Gtr 2        Gtr 1 intro
D|--------------0---------------0------------------0------------------0-||
A|--------------0---------------0------------------0------------------0-||
F|--------------0---------------0------------------0------------------0-||
C|--7-7--7--7-7-----9-9--9--9-9----10-10--10-10-10---12-12--12-12-12----||
G|--7-7--7--7-7-----9-9--9--9-9----10-10--10-10-10---12-12--12-12-12----||
D|--5-5--5--5-5-----7-7--7--7-7-----8--8---8--8--8---10-10--10-10-10----||

Gtrs 1&2
D|---------------------------------||
A|---------------------------------||
F|---------------------------------||
C|-7-7-7-7-7--2--6--7-7-7-7-7--2---||
G|-7-7-7-7-7--2--6--7-7-7-7-7--2---||
D|-5-5-5-5-5--0--4--5-5-5-5-5--0---||


Gtr 1 Clean h          h            h
D|-------------0------------0-----------0-----------0---------||
A|---------8--10--------8--10-------8--10-------8--10--8h10p8-||
F|-------9-----------9----------9----------9------------------||
C|-----0-----------0----------0----------0--------------------||
G|------------------------------------------------------------||
D|------------------------------------------------------------||

Gtr 2 Clean
D|--------------------0-----------0------------0-------------||
A|-----------------------------------------------------------||
F|-----------------------------------------------------------||
C|-------------5--4-------4--3---------3--4------------------||
G|-----------------------------------------------------------||
D|-----------------------------------------------------------||

Gtrs 1&2                       |this is played after the beginning riff has been played a few times
            p.m--------------------------------------|
D|-------------------------------------------------------x-x-x-x--||
A|-------------------------------------------------------x-x-x-x--||
F|-------------------------------------------------------x-x-x-x--||
C|-----------7--7--7--7--7--2---7--7--5--7--/-14----2---x-x-x-x--||
G|-----------7--7--7--7--7--2---7--7--5--7--/-14----2---x-x-x-x--||
D|--0/x-0---5--5--5--5--5--0---5--5--3--5--/-12----0---x-x-x-x--||

Gtrs 1&2
D|---------------------------------||
A|---------------------------------||
F|---------------------------------||
C|-7-7-7-7-7--2--6--7-7-7-7-7--2---||
G|-7-7-7-7-7--2--6--7-7-7-7-7--2---||
D|-5-5-5-5-5--0--4--5-5-5-5-5--0---||

Gtrs 1&2
D|------------------0------------------0-------||
A|------------------0------------------0-------||
F|------------------0------------------0-------||
C|--7--7--7--7--7---0---7--7--7--7--7--0-------||
G|--7--7--7--7--7---0---7--7--7--7--7--0-------||
D|--5--5--5--5--5-------5--5--5--5--5----------||

Gtrs 1&2
D|---------------------------------||
A|---------------------------------||
F|---------------------------------||
C|-7-7-7-7-7--2--6--7-7-7-7-7--2---||
G|-7-7-7-7-7--2--6--7-7-7-7-7--2---||
D|-5-5-5-5-5--0--4--5-5-5-5-5--0---||

Outro
D|--0--------------||
A|--0--------------||
F|--0--------------||
C|--7--------------||
G|--7--------------||
D|--5--------------||


Текст, аккорды и табулатура для песни "If I Could", исполняет "Hundred Reasons".
Используемые в песне аккорды можно найти в разделе Как брать аккорды. Аккорды для шестиструнной гитары. Другие песни можно найти на нашем сайте, воспользовавшись алфавитным указателем вверху страницы.


 
Ошибка в тексте? Выделите ошибку и нажмите Ctrl+Enter