This is my favourate track and took me ages to tab so if its not good enough
you can kiss my hairy been bag!!

suppose u could play it in standard tuning but sounds most like the original
if tuned a whole step down. Oh and p=pull off. 

intro x4 
d-------------
A------8p7--3-
F------7----2-
C------9----0-
G------7--0---
D------0--0-3-

verse
              x3
d-------------  ---------------------------------------------------
A-8p7---10----  --8p7--3----8p7---10--8p7---10--8p7------8p7---5---
F-------9 ----  --7----2----------9 --------9 --------9--------7---
C-----0-------  --9----0--------0---------0-----------9------5-7---
G-------------  --7--0------------------------------7--------------
D-------------  --0--0-3-------------------------------------------

chorus

d------------------------------------------------------------------
A-------------------------------------------------3-3-3-3-3-3-3-3--
F-7-7-7-6---6-6---7-7-7-7---7-7-------------------2-2-2-2-2-2-2-2--
C-7-7-7-----------7-7-7-4---4-4---4-4-4-5---5-5---0-0-0-0-2-2-2-2--
G-5-5-5-4---4-4---------0---0-0---4-4-4-5---5-5---0-0-0-0-0-0-0-0--
D-----------------7-7-7-----------2-2-2-3---3-3--------------------

There are some other bits but, if u want them, you work them out!!!
Don't e-mail me if you find anything wrong!!


Текст, аккорды и табулатура для песни "Avalanche", исполняет "Hundred Reasons".
Используемые в песне аккорды можно найти в разделе Как брать аккорды. Аккорды для шестиструнной гитары. Другие песни можно найти на нашем сайте, воспользовавшись алфавитным указателем вверху страницы.


 
Ошибка в тексте? Выделите ошибку и нажмите Ctrl+Enter