Artist:Humble Pie
Song:Four Day Creep
Album:Rockin The Filmore
Tabbed By:Gary Hricewich
e-mail:[email protected]

                                             
               3x
G---|-------------|-------------------------|
D---|*-----------*|-------------------------|
A---|*-7-5-------*|-7-7-7-5-5-5-------------|
E---|------7-5-0--|-------------5-5-5-3-3-3-|
                                             
                                                                  
                                   4x
G---|--------------------|------------|--------------|-----------|
D---|*-------------------|-----------*|--------------|-----------|
A---|*---7-----7-----7---|-7-5-------*|----7-5-------|-7-5-------|
E---|--0---0-0---0-0---0-|-----7-5-0--|-0------7-5-0-|-----7-5-0-|
                                                                  
                                                                          
                                                          4x
G---------------------------|--------------------------------|-----------|
D---------------------------|*------------------------------*|-----------|
A---7-7-7-5-5-5-------------|*---7-----7-----7----7-5-------*|-7-5-------|
E---------------5-5-5-3-3-3-|--0---0-0---0-0---0------7-5-0--|-----7-5-0-|
                                                                          
                                               
 
G---------------|-----------|-----------------|
D---5-----------|-----------|-----------------|
A-----7-5-------|-7-5-------|-------5-5-5-5-5-|
E---------7-5-0-|-----7-5-0-|-0--------------|
                                               
                                                                                 
                                        2x                                 4x
G---|----------------|---------------------|-|--------------------------------|-|
D---|*---5-----------|---5----------------*|-|*------------------------------*|-|
A---|*-----------5---|----------7-5-------*|-|*---7-----7-----7----7-5-------*|-|
E---|--0---0-3-0---5-|-0---0-3------7-6-5--|-|--0---0-0---0-0---0------7-5-0--|-|
                                                                                 
                                                                                  
                 3x                                                         4x
G---|---------------|-------------------------|--------------------------------|-|
D---|*-------------*|-------------------------|*------------------------------*|-|
A---|*---7-5-------*|-7-7-7-5-5-5-------------|*---7-----7-----7----7-5-------*|-|
E---|--0-----7-5-0--|-------------5-5-5-3-3-3-|--0---0-0---0-0---0------7-5-0--|-|
                                                                                  
                                                  
               2x
G---|-------------|-------------|----------------|
D---|*-----------*|-------------|----------------|
A---|*-7-5-------*|---7-5-------|------5-5-5-5-5-|
E---|------7-5-0--|-0-----7-5-0-|-0-------------|
                                                  
                                                         
                                      2x
G---|----------------|--------------------|-------------|
D---|*---5-----------|---5---------------*|-------------|
A---|*-----------5---|---------7-5-------*|---7-5-------|
E---|--0---0-3-0---5-|-0---0-3-----7-6-5--|-0-----7-5-0-|
                                                         
                                               Run and End             
G---------------------------|---------|-------|------------|
D---------------------------|---------|-------|------------|
A---------------------------|---------|-------|----------7-|
E---0-0-0-0--0-0-0--0-3-5-5-|-5-5-3-0-|-0-3-5-|------------|


Текст, аккорды и табулатура для песни "Four Day Creep", исполняет "Humble Pie".
Используемые в песне аккорды можно найти в разделе Как брать аккорды. Аккорды для шестиструнной гитары. Другие песни можно найти на нашем сайте, воспользовавшись алфавитным указателем вверху страницы.


Слушать онлайн Four Day Creep


Humble PieFour Day Creep на Яндекс.Музыке


 
Ошибка в тексте? Выделите ошибку и нажмите Ctrl+Enter