Artist:        John Lee Hooker
Song title:     The Healer
Tabbed by:     Scot-Guitarist

This is all my own work

The rhythm is cha-cha and the chords are:=20

                  Dm7 G Dm7 Em Dm7 G Bb7 A

(I'm not sure about the last one but it works well)
                                                                         =
Chords: Dm7 x-5-7-5-6-5-|
        Em  x-7-9-9-8-7-|
        G   3-5-5-4-3-3-|
        Bb7 6-8-6-7-6-6-|
        A   5-7-7-6-5-5-|

the old man rather talks than sings so I cannot put chords on the lyrics

Intro Solo: Scale Dm=20
(Symbols: s=3Dslide, b=3Dbend, r=3Dreverse bend, h=3Dhammer, p=3Dpull =
off)

E---------------------------------------------------------------------|
B-6--6s8---6--6s8---------6--6s8-8------------------------------------|
G---------------------------------------------------------------------|
D-7--7s9---7--7s9------0--7--7s9---3b(5)r3-0---0-----------0---0------|
A------------------0-3------------------------3---------0-3---3-------|
E---------------------------------------------------0-3---------------|

repeat the above which is played without chords

E----------------------------------------------------------------------|
A-------------------------------6b--------------------5-6--------------|
G-------5-7-7-5-7-----5-7-7-5-7--------5-7-7-5-7--7-7-----7b(9)r7p5----|
D--7-7------------7-7--------------7-7-----------------------------7p5-|
A----------------------------------------------------------------------|
E----------------------------------------------------------------------|

E---------------------------------------------------------------------|
B-------------------------------6-8b(10)r8p6-8-6---8b(10)-8b(10)------|
G--------------------5-7-7-5-7----------------------------------------|
D-3-3h5-3h5-3----7-7--------------------------------------------------|
A---------------------------------------------------------------------|
E---------------------------------------------------------------------|

E-8-5-------------------------------------------------------------13b-|
B----8-6-8-6-8b(10)-------------13-15-15-13-15----13-15-15-13-15------|
G---------------------------14-----------------14---------------------|
D---------------------------------------------------------------------|
A---------------------------------------------------------------------|
E---------------------------------------------------------------------|

E--------------------------12-13-12-10--------------------------------|
B-------13-15-15-13-15---------------------15s17-15p13----------------|
G-14-14-----------------------------------------------12b(13)r12p10---|
D------------------------------------------------------------------12-|
A---------------------------------------------------------------------|
E---------------------------------------------------------------------|

E-------------13----13-15b(17)r15p13-15-13--20b(22)..(22)r20p17-------|
B-------13-15----15---------------------------------------------20-18-|
G-14-14----------------------------------------------------------------|
D----------------------------------------------------------------------|
A----------------------------------------------------------------------|
E----------------------------------------------------------------------|


Текст, аккорды и табулатура для песни "The Healer", исполняет "Hooker John Lee".
Используемые в песне аккорды можно найти в разделе Как брать аккорды. Аккорды для шестиструнной гитары. Другие песни можно найти на нашем сайте, воспользовавшись алфавитным указателем вверху страницы.


Слушать онлайн She Was in Chicago


John Lee HookerShe Was in Chicago на Яндекс.Музыке


 
Ошибка в тексте? Выделите ошибку и нажмите Ctrl+Enter